  0
SECTION
  2
HEADER
  9
$ACADVER
  1
AC1015
  9
$ACADMAINTVER
 70
     6
  9
$DWGCODEPAGE
  3
ANSI_1254
  9
$INSBASE
 10
0.0
 20
0.0
 30
0.0
  9
$EXTMIN
 10
0.0
 20
0.0
 30
0.0
  9
$EXTMAX
 10
279.4
 20
215.9
 30
0.0
  9
$LIMMIN
 10
0.0
 20
0.0
  9
$LIMMAX
 10
279.4
 20
215.9
  9
$ORTHOMODE
 70
     0
  9
$REGENMODE
 70
     1
  9
$FILLMODE
 70
     1
  9
$QTEXTMODE
 70
     0
  9
$MIRRTEXT
 70
     1
  9
$LTSCALE
 40
1.0
  9
$ATTMODE
 70
     1
  9
$TEXTSIZE
 40
3.5
  9
$TRACEWID
 40
1.0
  9
$TEXTSTYLE
  7
Standard
  9
$CLAYER
  8
0
  9
$CELTYPE
  6
ByLayer
  9
$CECOLOR
 62
   256
  9
$CELTSCALE
 40
1.0
  9
$DISPSILH
 70
     0
  9
$DIMSCALE
 40
1.0
  9
$DIMASZ
 40
3.5
  9
$DIMEXO
 40
1.0
  9
$DIMDLI
 40
3.75
  9
$DIMRND
 40
0.0
  9
$DIMDLE
 40
0.0
  9
$DIMEXE
 40
1.0
  9
$DIMTP
 40
0.0
  9
$DIMTM
 40
0.0
  9
$DIMTXT
 40
3.5
  9
$DIMCEN
 40
2.5
  9
$DIMTSZ
 40
0.0
  9
$DIMTOL
 70
     0
  9
$DIMLIM
 70
     0
  9
$DIMTIH
 70
     1
  9
$DIMTOH
 70
     1
  9
$DIMSE1
 70
     0
  9
$DIMSE2
 70
     0
  9
$DIMTAD
 70
     1
  9
$DIMZIN
 70
     0
  9
$DIMBLK
  1

  9
$DIMASO
 70
     1
  9
$DIMSHO
 70
     1
  9
$DIMPOST
  1

  9
$DIMAPOST
  1

  9
$DIMALT
 70
     0
  9
$DIMALTD
 70
     3
  9
$DIMALTF
 40
0.0393700787
  9
$DIMLFAC
 40
1.0
  9
$DIMTOFL
 70
     1
  9
$DIMTVP
 40
0.0
  9
$DIMTIX
 70
     0
  9
$DIMSOXD
 70
     0
  9
$DIMSAH
 70
     0
  9
$DIMBLK1
  1

  9
$DIMBLK2
  1

  9
$DIMSTYLE
  2
ISO-25
  9
$DIMCLRD
 70
     0
  9
$DIMCLRE
 70
     0
  9
$DIMCLRT
 70
     0
  9
$DIMTFAC
 40
1.0
  9
$DIMGAP
 40
1.524
  9
$DIMJUST
 70
     0
  9
$DIMSD1
 70
     0
  9
$DIMSD2
 70
     0
  9
$DIMTOLJ
 70
     0
  9
$DIMTZIN
 70
     0
  9
$DIMALTZ
 70
     0
  9
$DIMALTTZ
 70
     0
  9
$DIMUPT
 70
     0
  9
$DIMDEC
 70
     2
  9
$DIMTDEC
 70
     2
  9
$DIMALTU
 70
     2
  9
$DIMALTTD
 70
     3
  9
$DIMTXSTY
  7
Standard
  9
$DIMAUNIT
 70
     0
  9
$DIMADEC
 70
     2
  9
$DIMALTRND
 40
0.0
  9
$DIMAZIN
 70
     0
  9
$DIMDSEP
 70
    44
  9
$DIMATFIT
 70
     3
  9
$DIMFRAC
 70
     0
  9
$DIMLDRBLK
  1

  9
$DIMLUNIT
 70
     2
  9
$DIMLWD
 70
    -2
  9
$DIMLWE
 70
    -2
  9
$DIMTMOVE
 70
     0
  9
$LUNITS
 70
     2
  9
$LUPREC
 70
     2
  9
$SKETCHINC
 40
1.0
  9
$FILLETRAD
 40
10.0
  9
$AUNITS
 70
     0
  9
$AUPREC
 70
     2
  9
$MENU
  1
.
  9
$ELEVATION
 40
0.0
  9
$PELEVATION
 40
0.0
  9
$THICKNESS
 40
0.0
  9
$LIMCHECK
 70
     0
  9
$CHAMFERA
 40
0.0
  9
$CHAMFERB
 40
0.0
  9
$CHAMFERC
 40
0.0
  9
$CHAMFERD
 40
0.0
  9
$SKPOLY
 70
     0
  9
$TDCREATE
 40
2459741.614396343
  9
$TDUCREATE
 40
2459741.489396343
  9
$TDUPDATE
 40
2459741.614396528
  9
$TDUUPDATE
 40
2459741.489396528
  9
$TDINDWG
 40
0.0000000116
  9
$TDUSRTIMER
 40
0.0000000116
  9
$USRTIMER
 70
     1
  9
$ANGBASE
 50
0.0
  9
$ANGDIR
 70
     0
  9
$PDMODE
 70
     0
  9
$PDSIZE
 40
-1.0
  9
$PLINEWID
 40
0.0
  9
$SPLFRAME
 70
     0
  9
$SPLINETYPE
 70
     6
  9
$SPLINESEGS
 70
     8
  9
$HANDSEED
  5
13D
  9
$SURFTAB1
 70
     6
  9
$SURFTAB2
 70
     6
  9
$SURFTYPE
 70
     6
  9
$SURFU
 70
     6
  9
$SURFV
 70
     6
  9
$UCSBASE
  2

  9
$UCSNAME
  2

  9
$UCSORG
 10
0.0
 20
0.0
 30
0.0
  9
$UCSXDIR
 10
1.0
 20
0.0
 30
0.0
  9
$UCSYDIR
 10
0.0
 20
1.0
 30
0.0
  9
$UCSORTHOREF
  2

  9
$UCSORTHOVIEW
 70
     0
  9
$UCSORGTOP
 10
0.0
 20
0.0
 30
0.0
  9
$UCSORGBOTTOM
 10
0.0
 20
0.0
 30
0.0
  9
$UCSORGLEFT
 10
0.0
 20
0.0
 30
0.0
  9
$UCSORGRIGHT
 10
0.0
 20
0.0
 30
0.0
  9
$UCSORGFRONT
 10
0.0
 20
0.0
 30
0.0
  9
$UCSORGBACK
 10
0.0
 20
0.0
 30
0.0
  9
$PUCSBASE
  2

  9
$PUCSNAME
  2

  9
$PUCSORG
 10
0.0
 20
0.0
 30
0.0
  9
$PUCSXDIR
 10
1.0
 20
0.0
 30
0.0
  9
$PUCSYDIR
 10
0.0
 20
1.0
 30
0.0
  9
$PUCSORTHOREF
  2

  9
$PUCSORTHOVIEW
 70
     0
  9
$PUCSORGTOP
 10
0.0
 20
0.0
 30
0.0
  9
$PUCSORGBOTTOM
 10
0.0
 20
0.0
 30
0.0
  9
$PUCSORGLEFT
 10
0.0
 20
0.0
 30
0.0
  9
$PUCSORGRIGHT
 10
0.0
 20
0.0
 30
0.0
  9
$PUCSORGFRONT
 10
0.0
 20
0.0
 30
0.0
  9
$PUCSORGBACK
 10
0.0
 20
0.0
 30
0.0
  9
$USERI1
 70
     0
  9
$USERI2
 70
     0
  9
$USERI3
 70
     0
  9
$USERI4
 70
     0
  9
$USERI5
 70
     0
  9
$USERR1
 40
0.0
  9
$USERR2
 40
0.0
  9
$USERR3
 40
0.0
  9
$USERR4
 40
0.0
  9
$USERR5
 40
0.0
  9
$WORLDVIEW
 70
     1
  9
$SHADEDGE
 70
     3
  9
$SHADEDIF
 70
    70
  9
$TILEMODE
 70
     1
  9
$MAXACTVP
 70
    64
  9
$PINSBASE
 10
0.0
 20
0.0
 30
0.0
  9
$PLIMCHECK
 70
     0
  9
$PEXTMIN
 10
1.0000000000E+20
 20
1.0000000000E+20
 30
1.0000000000E+20
  9
$PEXTMAX
 10
-1.0000000000E+20
 20
-1.0000000000E+20
 30
-1.0000000000E+20
  9
$PLIMMIN
 10
0.0
 20
0.0
  9
$PLIMMAX
 10
420.0
 20
297.0
  9
$UNITMODE
 70
     0
  9
$VISRETAIN
 70
     1
  9
$PLINEGEN
 70
     0
  9
$PSLTSCALE
 70
     1
  9
$TREEDEPTH
 70
  3020
  9
$CMLSTYLE
  2
Standard
  9
$CMLJUST
 70
     0
  9
$CMLSCALE
 40
20.0
  9
$PROXYGRAPHICS
 70
     1
  9
$MEASUREMENT
 70
     1
  9
$CELWEIGHT
370
    -1
  9
$ENDCAPS
280
     0
  9
$JOINSTYLE
280
     0
  9
$LWDISPLAY
290
     1
  9
$INSUNITS
 70
     4
  9
$HYPERLINKBASE
  1

  9
$STYLESHEET
  1

  9
$XEDIT
290
     1
  9
$CEPSNTYPE
380
     0
  9
$PSTYLEMODE
290
     1
  9
$FINGERPRINTGUID
  2
{47d90868-1b22-4e45-b3e9-5b90fb80fce2}
  9
$VERSIONGUID
  2
{FAEB1C32-E019-11D5-929B-00C0DF256EC4}
  9
$EXTNAMES
290
     1
  9
$PSVPSCALE
 40
0.0
  9
$OLESTARTUP
290
     0
  0
ENDSEC
  0
SECTION
  2
CLASSES
  0
CLASS
  1
ACDBDICTIONARYWDFLT
  2
AcDbDictionaryWithDefault
  3
ObjectDBX Classes
 90
        0
280
     0
281
     0
  0
CLASS
  1
VISUALSTYLE
  2
AcDbVisualStyle
  3
ObjectDBX Classes
 90
     4095
280
     0
281
     0
  0
CLASS
  1
MATERIAL
  2
AcDbMaterial
  3
ObjectDBX Classes
 90
     1153
280
     0
281
     0
  0
CLASS
  1
SCALE
  2
AcDbScale
  3
ObjectDBX Classes
 90
     1153
280
     0
281
     0
  0
CLASS
  1
TABLESTYLE
  2
AcDbTableStyle
  3
ObjectDBX Classes
 90
     4095
280
     0
281
     0
  0
CLASS
  1
MLEADERSTYLE
  2
AcDbMLeaderStyle
  3
ACDB_MLEADERSTYLE_CLASS
 90
     4095
280
     0
281
     0
  0
CLASS
  1
SUN
  2
AcDbSun
  3
SCENEOE
 90
     1153
280
     0
281
     0
  0
CLASS
  1
ACDBPLACEHOLDER
  2
AcDbPlaceHolder
  3
ObjectDBX Classes
 90
        0
280
     0
281
     0
  0
CLASS
  1
LAYOUT
  2
AcDbLayout
  3
ObjectDBX Classes
 90
        0
280
     0
281
     0
  0
ENDSEC
  0
SECTION
  2
TABLES
  0
TABLE
  2
VPORT
  5
8
330
0
100
AcDbSymbolTable
 70
     1
  0
VPORT
  5
29
330
8
100
AcDbSymbolTableRecord
100
AcDbViewportTableRecord
  2
*Active
 70
     0
 10
0.0
 20
0.0
 11
1.0
 21
1.0
 12
139.7
 22
107.95
 13
0.0
 23
0.0
 14
10.0
 24
10.0
 15
10.0
 25
10.0
 16
0.0
 26
0.0
 36
1.0
 17
0.0
 27
0.0
 37
0.0
 40
215.9
 41
1.2941176471
 42
50.0
 43
0.0
 44
0.0
 50
0.0
 51
0.0
 71
     0
 72
  2000
 73
     1
 74
     3
 75
     0
 76
     0
 77
     0
 78
     0
281
     0
 65
     1
110
0.0
120
0.0
130
0.0
111
1.0
121
0.0
131
0.0
112
0.0
122
1.0
132
0.0
 79
     0
146
0.0
  0
ENDTAB
  0
TABLE
  2
LTYPE
  5
5
330
0
100
AcDbSymbolTable
 70
     6
  0
LTYPE
  5
14
330
5
100
AcDbSymbolTableRecord
100
AcDbLinetypeTableRecord
  2
ByBlock
 70
     0
  3

 72
    65
 73
     0
 40
0.0
  0
LTYPE
  5
15
330
5
100
AcDbSymbolTableRecord
100
AcDbLinetypeTableRecord
  2
ByLayer
 70
     0
  3

 72
    65
 73
     0
 40
0.0
  0
LTYPE
  5
16
330
5
100
AcDbSymbolTableRecord
100
AcDbLinetypeTableRecord
  2
Continuous
 70
     0
  3
Solid line
 72
    65
 73
     0
 40
0.0
  0
LTYPE
  5
6E
330
5
100
AcDbSymbolTableRecord
100
AcDbLinetypeTableRecord
  2
HIDDEN
 70
     0
  3
Hidden __ __ __ __ __ __ __ __ __ __ __ __ __ __
 72
    65
 73
     2
 40
1.905
 49
1.27
 74
     0
 49
-0.635
 74
     0
  0
LTYPE
  5
6F
330
5
100
AcDbSymbolTableRecord
100
AcDbLinetypeTableRecord
  2
PHANTOM
 70
     0
  3
Phantom ______  __  __  ______  __  __  ______
 72
    65
 73
     6
 40
12.7
 49
6.35
 74
     0
 49
-1.27
 74
     0
 49
1.27
 74
     0
 49
-1.27
 74
     0
 49
1.27
 74
     0
 49
-1.27
 74
     0
  0
LTYPE
  5
70
330
5
100
AcDbSymbolTableRecord
100
AcDbLinetypeTableRecord
  2
CENTER
 70
     0
  3
Center ____ _ ____ _ ____ _ ____ _ ____ _ ____
 72
    65
 73
     4
 40
10.16
 49
6.35
 74
     0
 49
-1.27
 74
     0
 49
1.27
 74
     0
 49
-1.27
 74
     0
  0
LTYPE
  5
71
330
5
100
AcDbSymbolTableRecord
100
AcDbLinetypeTableRecord
  2
CENTERX2
 70
     0
  3
Center (2x) ________  __  ________  __  _____
 72
    65
 73
     4
 40
20.32
 49
12.7
 74
     0
 49
-2.54
 74
     0
 49
2.54
 74
     0
 49
-2.54
 74
     0
  0
LTYPE
  5
72
330
5
100
AcDbSymbolTableRecord
100
AcDbLinetypeTableRecord
  2
DOT2
 70
     0
  3
Dot (.5x) ........................................
 72
    65
 73
     2
 40
0.635
 49
0.0
 74
     0
 49
-0.635
 74
     0
  0
ENDTAB
  0
TABLE
  2
LAYER
  5
2
330
0
100
AcDbSymbolTable
 70
    17
  0
LAYER
  5
10
330
2
100
AcDbSymbolTableRecord
100
AcDbLayerTableRecord
  2
0
 70
     0
 62
     7
  6
Continuous
370
    -3
390
F
  0
LAYER
  5
73
330
2
100
AcDbSymbolTableRecord
100
AcDbLayerTableRecord
  2
FORMAT
 70
     0
 62
     7
  6
Continuous
370
    -3
390
F
  0
LAYER
  5
74
330
2
100
AcDbSymbolTableRecord
100
AcDbLayerTableRecord
  2
YARDIMCI_GEOMETRI
 70
     0
 62
    -6
  6
Continuous
290
     0
370
    -3
390
F
  0
LAYER
  5
75
330
2
100
AcDbSymbolTableRecord
100
AcDbLayerTableRecord
  2
SAYFA_CERCEVESI
 70
     0
 62
     7
  6
Continuous
370
    25
390
F
  0
LAYER
  5
76
330
2
100
AcDbSymbolTableRecord
100
AcDbLayerTableRecord
  2
ANTET
 70
     0
 62
     7
  6
Continuous
370
    -3
390
F
  0
LAYER
  5
77
330
2
100
AcDbSymbolTableRecord
100
AcDbLayerTableRecord
  2
OLCU
 70
     0
 62
   150
  6
Continuous
370
    -3
390
F
  0
LAYER
  5
78
330
2
100
AcDbSymbolTableRecord
100
AcDbLayerTableRecord
  2
METIN
 70
     0
 62
    96
  6
Continuous
370
    -3
390
F
  0
LAYER
  5
79
330
2
100
AcDbSymbolTableRecord
100
AcDbLayerTableRecord
  2
BALON
 70
     0
 62
     5
  6
Continuous
370
    -3
390
F
  0
LAYER
  5
7A
330
2
100
AcDbSymbolTableRecord
100
AcDbLayerTableRecord
  2
VURGU
 70
     0
 62
     7
  6
Continuous
370
    -3
390
F
  0
LAYER
  5
7B
330
2
100
AcDbSymbolTableRecord
100
AcDbLayerTableRecord
  2
SILIK
 70
     0
 62
     7
  6
Continuous
370
    -3
390
F
  0
LAYER
  5
7C
330
2
100
AcDbSymbolTableRecord
100
AcDbLayerTableRecord
  2
MODEL
 70
     0
 62
     7
  6
Continuous
370
    -3
390
F
  0
LAYER
  5
7D
330
2
100
AcDbSymbolTableRecord
100
AcDbLayerTableRecord
  2
DETAYLANDıRMA
 70
     0
 62
   190
  6
Continuous
370
    -3
390
F
  0
LAYER
  5
7E
330
2
100
AcDbSymbolTableRecord
100
AcDbLayerTableRecord
  2
TOLERANS
 70
     0
 62
   230
  6
Continuous
370
    -3
390
F
  0
LAYER
  5
7F
330
2
100
AcDbSymbolTableRecord
100
AcDbLayerTableRecord
  2
MERKEZ_CIZGILERI
 70
     0
 62
    30
  6
Continuous
370
    -3
390
F
  0
LAYER
  5
80
330
2
100
AcDbSymbolTableRecord
100
AcDbLayerTableRecord
  2
KESIT-DETAY_CIZGILERI
 70
     0
 62
     7
  6
Continuous
370
    -3
390
F
  0
LAYER
  5
81
330
2
100
AcDbSymbolTableRecord
100
AcDbLayerTableRecord
  2
\U+041E\U+0421\U+0415\U+0412\U+042B\U+0415
 70
     0
 62
     7
  6
Continuous
370
    -3
390
F
  0
LAYER
  5
82
330
2
100
AcDbSymbolTableRecord
100
AcDbLayerTableRecord
  2
\U+0412\U+041E\U+0414\U+042F\U+041D\U+042B\U+0415_\U+0417\U+041D\U+0410\U+041A\U+0418
 70
     0
 62
    11
  6
Continuous
370
    -3
390
F
  0
ENDTAB
  0
TABLE
  2
STYLE
  5
3
330
0
100
AcDbSymbolTable
 70
     1
  0
STYLE
  5
11
330
3
100
AcDbSymbolTableRecord
100
AcDbTextStyleTableRecord
  2
Standard
 70
     0
 40
0.0
 41
1.0
 50
0.0
 71
     0
 42
3.5
  3
txt
  4

  0
ENDTAB
  0
TABLE
  2
VIEW
  5
6
330
0
100
AcDbSymbolTable
 70
     0
  0
ENDTAB
  0
TABLE
  2
UCS
  5
7
330
0
100
AcDbSymbolTable
 70
     0
  0
ENDTAB
  0
TABLE
  2
APPID
  5
9
330
0
100
AcDbSymbolTable
 70
     1
  0
APPID
  5
12
330
9
100
AcDbSymbolTableRecord
100
AcDbRegAppTableRecord
  2
ACAD
 70
     0
  0
ENDTAB
  0
TABLE
  2
DIMSTYLE
  5
A
330
0
100
AcDbSymbolTable
 70
     1
100
AcDbDimStyleTable
  0
DIMSTYLE
105
27
330
A
100
AcDbSymbolTableRecord
100
AcDbDimStyleTableRecord
  2
ISO-25
 70
     0
 41
2.5
 42
0.625
 43
3.75
 44
1.25
 73
     0
 74
     0
 77
     1
 78
     8
140
2.5
141
2.5
143
0.0393700787
147
0.625
171
     3
172
     1
178
     0
271
     2
272
     2
274
     3
278
    44
283
     0
284
     8
340
11
  0
ENDTAB
  0
TABLE
  2
BLOCK_RECORD
  5
1
330
0
100
AcDbSymbolTable
 70
     5
  0
BLOCK_RECORD
  5
1F
330
1
100
AcDbSymbolTableRecord
100
AcDbBlockTableRecord
  2
*Model_Space
340
22
  0
BLOCK_RECORD
  5
1B
330
1
100
AcDbSymbolTableRecord
100
AcDbBlockTableRecord
  2
*Paper_Space
340
1E
  0
BLOCK_RECORD
  5
23
330
1
100
AcDbSymbolTableRecord
100
AcDbBlockTableRecord
  2
*Paper_Space0
340
26
  0
BLOCK_RECORD
  5
C4
330
1
100
AcDbSymbolTableRecord
100
AcDbBlockTableRecord
  2
SW_CENTERMARKSYMBOL_0
340
0
102
{BLKREFS
331
CF
102
}
  0
BLOCK_RECORD
  5
EF
330
1
100
AcDbSymbolTableRecord
100
AcDbBlockTableRecord
  2
SW_CENTERMARKSYMBOL_1
340
0
102
{BLKREFS
331
FA
102
}
  0
BLOCK_RECORD
  5
FB
330
1
100
AcDbSymbolTableRecord
100
AcDbBlockTableRecord
  2
SW_CENTERMARKSYMBOL_2
340
0
102
{BLKREFS
331
106
102
}
  0
BLOCK_RECORD
  5
107
330
1
100
AcDbSymbolTableRecord
100
AcDbBlockTableRecord
  2
SW_CENTERMARKSYMBOL_3
340
0
102
{BLKREFS
331
112
102
}
  0
ENDTAB
  0
ENDSEC
  0
SECTION
  2
BLOCKS
  0
BLOCK
  5
20
330
1F
100
AcDbEntity
  8
0
100
AcDbBlockBegin
  2
*Model_Space
 70
     0
 10
0.0
 20
0.0
 30
0.0
  3
*Model_Space
  1

  0
ENDBLK
  5
21
330
1F
100
AcDbEntity
  8
0
100
AcDbBlockEnd
  0
BLOCK
  5
1C
330
1B
100
AcDbEntity
 67
     1
  8
0
100
AcDbBlockBegin
  2
*Paper_Space
 70
     0
 10
0.0
 20
0.0
 30
0.0
  3
*Paper_Space
  1

  0
ENDBLK
  5
1D
330
1B
100
AcDbEntity
 67
     1
  8
0
100
AcDbBlockEnd
  0
BLOCK
  5
24
330
23
100
AcDbEntity
  8
0
100
AcDbBlockBegin
  2
*Paper_Space0
 70
     0
 10
0.0
 20
0.0
 30
0.0
  3
*Paper_Space0
  1

  0
ENDBLK
  5
25
330
23
100
AcDbEntity
  8
0
100
AcDbBlockEnd
  0
BLOCK
  5
C5
330
C4
100
AcDbEntity
  8
0
100
AcDbBlockBegin
  2
SW_CENTERMARKSYMBOL_0
 70
     0
 10
0.0
 20
0.0
 30
0.0
  3
SW_CENTERMARKSYMBOL_0
  1

  0
LINE
  5
C7
330
C4
100
AcDbEntity
  8
FORMAT
 62
     0
100
AcDbLine
 10
0.0
 20
0.0
 30
0.0
 11
0.0
 21
2.5
 31
0.0
  0
LINE
  5
C8
330
C4
100
AcDbEntity
  8
FORMAT
 62
     0
100
AcDbLine
 10
0.0
 20
0.0
 30
0.0
 11
-2.5
 21
0.0
 31
0.0
  0
LINE
  5
C9
330
C4
100
AcDbEntity
  8
FORMAT
 62
     0
100
AcDbLine
 10
0.0
 20
0.0
 30
0.0
 11
0.0
 21
-2.5
 31
0.0
  0
LINE
  5
CA
330
C4
100
AcDbEntity
  8
FORMAT
 62
     0
100
AcDbLine
 10
0.0
 20
0.0
 30
0.0
 11
2.5
 21
0.0
 31
0.0
  0
LINE
  5
CB
330
C4
100
AcDbEntity
  8
FORMAT
 62
     0
100
AcDbLine
 10
0.0
 20
5.0
 30
0.0
 11
0.0
 21
28.2
 31
0.0
  0
LINE
  5
CC
330
C4
100
AcDbEntity
  8
FORMAT
 62
     0
100
AcDbLine
 10
-5.0
 20
0.0
 30
0.0
 11
-28.2
 21
0.0
 31
0.0
  0
LINE
  5
CD
330
C4
100
AcDbEntity
  8
FORMAT
 62
     0
100
AcDbLine
 10
0.0
 20
-5.0
 30
0.0
 11
0.0
 21
-28.2
 31
0.0
  0
LINE
  5
CE
330
C4
100
AcDbEntity
  8
FORMAT
 62
     0
100
AcDbLine
 10
5.0
 20
0.0
 30
0.0
 11
28.2
 21
0.0
 31
0.0
  0
ENDBLK
  5
C6
330
C4
100
AcDbEntity
  8
0
100
AcDbBlockEnd
  0
BLOCK
  5
F0
330
EF
100
AcDbEntity
  8
0
100
AcDbBlockBegin
  2
SW_CENTERMARKSYMBOL_1
 70
     0
 10
0.0
 20
0.0
 30
0.0
  3
SW_CENTERMARKSYMBOL_1
  1

  0
LINE
  5
F2
330
EF
100
AcDbEntity
  8
FORMAT
 62
     0
100
AcDbLine
 10
0.0
 20
0.0
 30
0.0
 11
0.0
 21
2.5
 31
0.0
  0
LINE
  5
F3
330
EF
100
AcDbEntity
  8
FORMAT
 62
     0
100
AcDbLine
 10
0.0
 20
0.0
 30
0.0
 11
-2.5
 21
0.0
 31
0.0
  0
LINE
  5
F4
330
EF
100
AcDbEntity
  8
FORMAT
 62
     0
100
AcDbLine
 10
0.0
 20
0.0
 30
0.0
 11
0.0
 21
-2.5
 31
0.0
  0
LINE
  5
F5
330
EF
100
AcDbEntity
  8
FORMAT
 62
     0
100
AcDbLine
 10
0.0
 20
0.0
 30
0.0
 11
2.5
 21
0.0
 31
0.0
  0
LINE
  5
F6
330
EF
100
AcDbEntity
  8
FORMAT
 62
     0
100
AcDbLine
 10
0.0
 20
5.0
 30
0.0
 11
0.0
 21
34.0
 31
0.0
  0
LINE
  5
F7
330
EF
100
AcDbEntity
  8
FORMAT
 62
     0
100
AcDbLine
 10
-5.0
 20
0.0
 30
0.0
 11
-34.0
 21
0.0
 31
0.0
  0
LINE
  5
F8
330
EF
100
AcDbEntity
  8
FORMAT
 62
     0
100
AcDbLine
 10
0.0
 20
-5.0
 30
0.0
 11
0.0
 21
-34.0
 31
0.0
  0
LINE
  5
F9
330
EF
100
AcDbEntity
  8
FORMAT
 62
     0
100
AcDbLine
 10
5.0
 20
0.0
 30
0.0
 11
34.0
 21
0.0
 31
0.0
  0
ENDBLK
  5
F1
330
EF
100
AcDbEntity
  8
0
100
AcDbBlockEnd
  0
BLOCK
  5
FC
330
FB
100
AcDbEntity
  8
0
100
AcDbBlockBegin
  2
SW_CENTERMARKSYMBOL_2
 70
     0
 10
0.0
 20
0.0
 30
0.0
  3
SW_CENTERMARKSYMBOL_2
  1

  0
LINE
  5
FE
330
FB
100
AcDbEntity
  8
FORMAT
 62
     0
100
AcDbLine
 10
0.0
 20
0.0
 30
0.0
 11
0.0
 21
2.5
 31
0.0
  0
LINE
  5
FF
330
FB
100
AcDbEntity
  8
FORMAT
 62
     0
100
AcDbLine
 10
0.0
 20
0.0
 30
0.0
 11
-2.5
 21
0.0
 31
0.0
  0
LINE
  5
100
330
FB
100
AcDbEntity
  8
FORMAT
 62
     0
100
AcDbLine
 10
0.0
 20
0.0
 30
0.0
 11
0.0
 21
-2.5
 31
0.0
  0
LINE
  5
101
330
FB
100
AcDbEntity
  8
FORMAT
 62
     0
100
AcDbLine
 10
0.0
 20
0.0
 30
0.0
 11
2.5
 21
0.0
 31
0.0
  0
LINE
  5
102
330
FB
100
AcDbEntity
  8
FORMAT
 62
     0
100
AcDbLine
 10
0.0
 20
5.0
 30
0.0
 11
0.0
 21
9.5
 31
0.0
  0
LINE
  5
103
330
FB
100
AcDbEntity
  8
FORMAT
 62
     0
100
AcDbLine
 10
-5.0
 20
0.0
 30
0.0
 11
-9.5
 21
0.0
 31
0.0
  0
LINE
  5
104
330
FB
100
AcDbEntity
  8
FORMAT
 62
     0
100
AcDbLine
 10
0.0
 20
-5.0
 30
0.0
 11
0.0
 21
-9.5
 31
0.0
  0
LINE
  5
105
330
FB
100
AcDbEntity
  8
FORMAT
 62
     0
100
AcDbLine
 10
5.0
 20
0.0
 30
0.0
 11
9.5
 21
0.0
 31
0.0
  0
ENDBLK
  5
FD
330
FB
100
AcDbEntity
  8
0
100
AcDbBlockEnd
  0
BLOCK
  5
108
330
107
100
AcDbEntity
  8
0
100
AcDbBlockBegin
  2
SW_CENTERMARKSYMBOL_3
 70
     0
 10
0.0
 20
0.0
 30
0.0
  3
SW_CENTERMARKSYMBOL_3
  1

  0
LINE
  5
10A
330
107
100
AcDbEntity
  8
FORMAT
 62
     0
100
AcDbLine
 10
0.0
 20
0.0
 30
0.0
 11
0.0
 21
2.5
 31
0.0
  0
LINE
  5
10B
330
107
100
AcDbEntity
  8
FORMAT
 62
     0
100
AcDbLine
 10
0.0
 20
0.0
 30
0.0
 11
-2.5
 21
0.0
 31
0.0
  0
LINE
  5
10C
330
107
100
AcDbEntity
  8
FORMAT
 62
     0
100
AcDbLine
 10
0.0
 20
0.0
 30
0.0
 11
0.0
 21
-2.5
 31
0.0
  0
LINE
  5
10D
330
107
100
AcDbEntity
  8
FORMAT
 62
     0
100
AcDbLine
 10
0.0
 20
0.0
 30
0.0
 11
2.5
 21
0.0
 31
0.0
  0
LINE
  5
10E
330
107
100
AcDbEntity
  8
FORMAT
 62
     0
100
AcDbLine
 10
0.0
 20
5.0
 30
0.0
 11
0.0
 21
9.5
 31
0.0
  0
LINE
  5
10F
330
107
100
AcDbEntity
  8
FORMAT
 62
     0
100
AcDbLine
 10
-5.0
 20
0.0
 30
0.0
 11
-9.5
 21
0.0
 31
0.0
  0
LINE
  5
110
330
107
100
AcDbEntity
  8
FORMAT
 62
     0
100
AcDbLine
 10
0.0
 20
-5.0
 30
0.0
 11
0.0
 21
-9.5
 31
0.0
  0
LINE
  5
111
330
107
100
AcDbEntity
  8
FORMAT
 62
     0
100
AcDbLine
 10
5.0
 20
0.0
 30
0.0
 11
9.5
 21
0.0
 31
0.0
  0
ENDBLK
  5
109
330
107
100
AcDbEntity
  8
0
100
AcDbBlockEnd
  0
ENDSEC
  0
SECTION
  2
ENTITIES
  0
LINE
  5
83
330
1F
100
AcDbEntity
  8
0
  6
Continuous
 62
     7
370
    25
100
AcDbLine
 10
171.1807140607
 20
36.7384285714
 30
0.0
 11
201.1807140607
 21
36.7384285714
 31
0.0
  0
LINE
  5
84
330
1F
100
AcDbEntity
  8
0
  6
Continuous
 62
     7
370
    25
100
AcDbLine
 10
81.1807140607
 20
36.7384285714
 30
0.0
 11
111.1807140607
 21
36.7384285714
 31
0.0
  0
LINE
  5
85
330
1F
100
AcDbEntity
  8
0
  6
Continuous
 62
     7
370
    25
100
AcDbLine
 10
84.1991924385
 20
113.7384285714
 30
0.0
 11
81.1807140607
 21
113.7384285714
 31
0.0
  0
LINE
  5
86
330
1F
100
AcDbEntity
  8
0
  6
Continuous
 62
     7
370
    25
100
AcDbLine
 10
109.6967386703
 20
113.7384285714
 30
0.0
 11
98.1807140607
 21
113.7384285714
 31
0.0
  0
LINE
  5
87
330
1F
100
AcDbEntity
  8
0
  6
Continuous
 62
     7
370
    25
100
AcDbLine
 10
184.1807140607
 20
113.7384285714
 30
0.0
 11
172.6651200604
 21
113.7384285714
 31
0.0
  0
LINE
  5
88
330
1F
100
AcDbEntity
  8
0
  6
Continuous
 62
     7
370
    25
100
AcDbLine
 10
201.1807140607
 20
113.7384285714
 30
0.0
 11
198.162235683
 21
113.7384285714
 31
0.0
  0
LINE
  5
89
330
1F
100
AcDbEntity
  8
0
  6
Continuous
 62
     7
370
    25
100
AcDbLine
 10
109.6807140607
 20
181.7384285714
 30
0.0
 11
109.6807140607
 21
113.7253128137
 31
0.0
  0
LINE
  5
8A
330
1F
100
AcDbEntity
  8
0
  6
Continuous
 62
     7
370
    25
100
AcDbLine
 10
172.6807140607
 20
113.7256664016
 30
0.0
 11
172.6807140607
 21
181.7384285714
 31
0.0
  0
LINE
  5
8B
330
1F
100
AcDbEntity
  8
0
  6
Continuous
 62
     7
370
    25
100
AcDbLine
 10
98.1807140607
 20
113.7384285714
 30
0.0
 11
98.1807140607
 21
128.7384285714
 31
0.0
  0
LINE
  5
8C
330
1F
100
AcDbEntity
  8
0
  6
Continuous
 62
     7
370
    25
100
AcDbLine
 10
84.1807140607
 20
128.7384285714
 30
0.0
 11
84.1807140607
 21
113.7350829742
 31
0.0
  0
LINE
  5
8D
330
1F
100
AcDbEntity
  8
0
  6
Continuous
 62
     7
370
    25
100
AcDbLine
 10
198.1807140607
 20
113.7350829742
 30
0.0
 11
198.1807140607
 21
128.7384285714
 31
0.0
  0
LINE
  5
8E
330
1F
100
AcDbEntity
  8
0
  6
Continuous
 62
     7
370
    25
100
AcDbLine
 10
184.1807140607
 20
128.7384285714
 30
0.0
 11
184.1807140607
 21
113.7384285714
 31
0.0
  0
LINE
  5
8F
330
1F
100
AcDbEntity
  8
0
  6
Continuous
 62
     7
370
    25
100
AcDbLine
 10
201.1807140607
 20
77.2384285714
 30
0.0
 11
81.1807140607
 21
77.2384285714
 31
0.0
  0
LINE
  5
90
330
1F
100
AcDbEntity
  8
0
  6
Continuous
 62
     7
370
    25
100
AcDbLine
 10
81.1807140607
 20
84.2384285714
 30
0.0
 11
81.1807140607
 21
77.2384285714
 31
0.0
  0
LINE
  5
91
330
1F
100
AcDbEntity
  8
0
  6
Continuous
 62
     7
370
    25
100
AcDbLine
 10
201.1807140607
 20
84.2384285714
 30
0.0
 11
81.1807140607
 21
84.2384285714
 31
0.0
  0
LINE
  5
92
330
1F
100
AcDbEntity
  8
0
  6
Continuous
 62
     7
370
    25
100
AcDbLine
 10
201.1807140607
 20
84.2384285714
 30
0.0
 11
201.1807140607
 21
77.2384285714
 31
0.0
  0
LINE
  5
93
330
1F
100
AcDbEntity
  8
0
  6
Continuous
 62
     7
370
    25
100
AcDbLine
 10
81.1807140607
 20
73.2384285714
 30
0.0
 11
81.1807140607
 21
66.2384285714
 31
0.0
  0
LINE
  5
94
330
1F
100
AcDbEntity
  8
0
  6
Continuous
 62
     7
370
    25
100
AcDbLine
 10
201.1807140607
 20
73.2384285714
 30
0.0
 11
81.1807140607
 21
73.2384285714
 31
0.0
  0
LINE
  5
95
330
1F
100
AcDbEntity
  8
0
  6
Continuous
 62
     7
370
    25
100
AcDbLine
 10
201.1807140607
 20
73.2384285714
 30
0.0
 11
201.1807140607
 21
66.2384285714
 31
0.0
  0
LINE
  5
96
330
1F
100
AcDbEntity
  8
0
  6
Continuous
 62
     7
370
    25
100
AcDbLine
 10
201.1807140607
 20
66.2384285714
 30
0.0
 11
81.1807140607
 21
66.2384285714
 31
0.0
  0
SPLINE
  5
97
330
1F
100
AcDbEntity
  8
0
  6
Continuous
 62
     7
370
    25
100
AcDbSpline
210
0.0
220
0.0
230
1.0
 70
     8
 71
     3
 72
    26
 73
    22
 74
     0
 42
0.00000001
 43
0.00000001
 40
0.0
 40
0.0
 40
0.0
 40
0.0
 40
0.0523309501170167
 40
0.1061946159632454
 40
0.1585213438869614
 40
0.2123371379299576
 40
0.265189811902258
 40
0.3195518370748441
 40
0.3727683274902219
 40
0.427560305937727
 40
0.4801890939776277
 40
0.5343826430908891
 40
0.5863864300569764
 40
0.6398832158648783
 40
0.6921987817663385
 40
0.7459882486421946
 40
0.7990616489096312
 40
0.8536691451274794
 40
0.9067764102788057
 40
0.9614660694234276
 40
1.0
 40
1.0
 40
1.0
 40
1.0
 10
184.1807140607425
 20
113.7384285714285
 30
0.0
 10
184.1990732559761
 20
113.7350689308608
 30
0.0
 10
184.2363293669938
 20
113.7282512495639
 30
0.0
 10
184.5357883865366
 20
113.6748303954557
 30
0.0
 10
185.008735328121
 20
113.5952321603862
 30
0.0
 10
185.6524975015624
 20
113.495963866934
 30
0.0
 10
186.4579508228126
 20
113.386889610589
 30
0.0
 10
187.3939933689073
 20
113.281288025235
 30
0.0
 10
188.4502610154301
 20
113.1897862311271
 30
0.0
 10
189.575178871917
 20
113.1248594969428
 30
0.0
 10
190.7534683886912
 20
113.092993545145
 30
0.0
 10
191.9244020847248
 20
113.0980110783019
 30
0.0
 10
193.0794697940551
 20
113.1387640242787
 30
0.0
 10
194.1680119870767
 20
113.2095290904925
 30
0.0
 10
195.184193527333
 20
113.303800583167
 30
0.0
 10
196.0867153152946
 20
113.4102410480325
 30
0.0
 10
196.8632063932061
 20
113.5187218811839
 30
0.0
 10
197.4782847000157
 20
113.6157962902914
 30
0.0
 10
197.9127608640696
 20
113.6901109834493
 30
0.0
 10
198.1531933259512
 20
113.7334053338927
 30
0.0
 10
198.1595911465782
 20
113.7345888609565
 30
0.0
 10
198.1622356829732
 20
113.7350780713576
 30
0.0
  0
SPLINE
  5
98
330
1F
100
AcDbEntity
  8
0
  6
Continuous
 62
     7
370
    25
100
AcDbSpline
210
0.0
220
0.0
230
1.0
 70
     8
 71
     3
 72
    29
 73
    25
 74
     0
 42
0.00000001
 43
0.00000001
 40
0.0
 40
0.0
 40
0.0
 40
0.0
 40
0.0321796422196419
 40
0.0643623089868597
 40
0.0975895821390436
 40
0.1308236447287355
 40
0.1751493125946945
 40
0.2194909248737763
 40
0.2650133819547796
 40
0.3105434772752582
 40
0.372815424046387
 40
0.4350922934032399
 40
0.4991727517260505
 40
0.5632456874517073
 40
0.6127322619603767
 40
0.6622133488478557
 40
0.7129958925175077
 40
0.7637702335966516
 40
0.8048799032544296
 40
0.8459858455332434
 40
0.8882371754469567
 40
0.9304853418225049
 40
0.9716370787167313
 40
1.0
 40
1.0
 40
1.0
 40
1.0
 10
141.1807140607425
 20
97.37437219260714
 30
0.0
 10
140.6157688333066
 20
97.38710574944538
 30
0.0
 10
139.4858252795313
 20
97.41257405994213
 30
0.0
 10
137.7872560135045
 20
97.61340855821638
 30
0.0
 10
136.0988943969622
 20
97.93025751368594
 30
0.0
 10
134.246266451356
 20
98.4106269934916
 30
0.0
 10
132.2727087237966
 20
99.07277807507789
 30
0.0
 10
130.1891269876273
 20
99.93051177196494
 30
0.0
 10
128.1775820481618
 20
100.8917262360929
 30
0.0
 10
126.0021519146117
 20
102.0570144307918
 30
0.0
 10
123.7176420141775
 20
103.4112348823774
 30
0.0
 10
121.3481735634609
 20
104.9432610919542
 30
0.0
 10
119.1240015092671
 20
106.4745454236494
 30
0.0
 10
117.217248864082
 20
107.8543499116064
 30
0.0
 10
115.6156957481712
 20
109.0509368422438
 30
0.0
 10
114.2729949034115
 20
110.0781911634054
 30
0.0
 10
113.0628034299824
 20
111.0217540509646
 30
0.0
 10
112.0702323277797
 20
111.8079407654762
 30
0.0
 10
111.2858345823328
 20
112.4358648651209
 30
0.0
 10
110.6773213587
 20
112.9269479608818
 30
0.0
 10
110.1997322567756
 20
113.3146656567799
 30
0.0
 10
109.8732921565067
 20
113.5809539785061
 30
0.0
 10
109.6987416756445
 20
113.7236386412023
 30
0.0
 10
109.6973191002855
 20
113.7248271444454
 30
0.0
 10
109.6967386702871
 20
113.7253120698527
 30
0.0
  0
SPLINE
  5
99
330
1F
100
AcDbEntity
  8
0
  6
Continuous
 62
     7
370
    25
100
AcDbSpline
210
0.0
220
0.0
230
1.0
 70
     8
 71
     3
 72
    29
 73
    25
 74
     0
 42
0.00000001
 43
0.00000001
 40
0.0
 40
0.0
 40
0.0
 40
0.0
 40
0.0323216250555902
 40
0.0755654140581862
 40
0.1143599449184602
 40
0.1531567654293439
 40
0.1929448822975904
 40
0.2327362651529879
 40
0.2742999679824278
 40
0.3158674439400717
 40
0.358280745183964
 40
0.400697352999513
 40
0.450487163048891
 40
0.5002810680456599
 40
0.5510488256067515
 40
0.6018178989912647
 40
0.6622962886696886
 40
0.7227656549815132
 40
0.7853436389971468
 40
0.8478759250451403
 40
0.885187021217382
 40
0.9224874443805879
 40
0.9612474116160695
 40
1.0
 40
1.0
 40
1.0
 40
1.0
 10
172.6651200603646
 20
113.7256650378338
 30
0.0
 10
172.6623625918068
 20
113.7233952894456
 30
0.0
 10
172.6559158474689
 20
113.7180887964561
 30
0.0
 10
172.461322181807
 20
113.5590454236746
 30
0.0
 10
172.132366263985
 20
113.2908441638304
 30
0.0
 10
171.6835299727586
 20
112.9265327497486
 30
0.0
 10
171.1094658267752
 20
112.4631562681966
 30
0.0
 10
170.4031714444633
 20
111.8974234688721
 30
0.0
 10
169.5707122243219
 20
111.2368709480591
 30
0.0
 10
168.6092957241861
 20
110.4831872528269
 30
0.0
 10
167.5361448312888
 20
109.6539760240801
 30
0.0
 10
166.2890793320725
 20
108.7074732174865
 30
0.0
 10
164.8623799267072
 20
107.6488522465173
 30
0.0
 10
163.2342828104464
 20
106.4776922015353
 30
0.0
 10
161.4833789149154
 20
105.2648377573621
 30
0.0
 10
159.4921599034636
 20
103.9517834223263
 30
0.0
 10
157.2495866219009
 20
102.5671723250043
 30
0.0
 10
154.6964254993773
 20
101.1422980772202
 30
0.0
 10
151.9503291062794
 20
99.80951188886034
 30
0.0
 10
149.3924920215904
 20
98.81044623032373
 30
0.0
 10
147.1345941732216
 20
98.13718816413069
 30
0.0
 10
145.2131126398678
 20
97.71294726497602
 30
0.0
 10
143.2221039902533
 20
97.4301802836805
 30
0.0
 10
141.8611341844827
 20
97.39297370899797
 30
0.0
 10
141.1807140607425
 20
97.37437219260714
 30
0.0
  0
SPLINE
  5
9A
330
1F
100
AcDbEntity
  8
0
  6
Continuous
 62
     7
370
    25
100
AcDbSpline
210
0.0
220
0.0
230
1.0
 70
     8
 71
     3
 72
    26
 73
    22
 74
     0
 42
0.00000001
 43
0.00000001
 40
0.0
 40
0.0
 40
0.0
 40
0.0
 40
0.0138407415035046
 40
0.0677601850102889
 40
0.1197813014892709
 40
0.1732819892851307
 40
0.2258490726147445
 40
0.2799033756030179
 40
0.333101084070013
 40
0.387854152488924
 40
0.4407818536431882
 40
0.4952903841500832
 40
0.5474450815585735
 40
0.6011188074512658
 40
0.6532122312900075
 40
0.7067758393881302
 40
0.7596032856193229
 40
0.8139375638664489
 40
0.8671614756172593
 40
0.9219590431893484
 40
1.0
 40
1.0
 40
1.0
 40
1.0
 10
84.19919243851177
 20
113.7350780713576
 30
0.0
 10
84.19371107176038
 20
113.7360718253011
 30
0.0
 10
84.16687591808824
 20
113.7409369512807
 30
0.0
 10
84.31381627529547
 20
113.7141924100144
 30
0.0
 10
84.64329517231558
 20
113.6562937800916
 30
0.0
 10
85.16332382639425
 20
113.5703945872131
 30
0.0
 10
85.85231461078877
 20
113.4673755942591
 30
0.0
 10
86.68938753656111
 20
113.3586352235279
 30
0.0
 10
87.66531845822726
 20
113.2549756792179
 30
0.0
 10
88.73627881838414
 20
113.1700959206686
 30
0.0
 10
89.88710288091164
 20
113.1128152512645
 30
0.0
 10
91.05779055450158
 20
113.0907757399499
 30
0.0
 10
92.2367241416729
 20
113.105542759175
 30
0.0
 10
93.36841253531871
 20
113.1544783238229
 30
0.0
 10
94.44749274497643
 20
113.2327529250075
 30
0.0
 10
95.43034899051045
 20
113.3307315277725
 30
0.0
 10
96.30707465552898
 20
113.4394094927379
 30
0.0
 10
97.0397560187166
 20
113.5456381901183
 30
0.0
 10
97.61000845442717
 20
113.6377396797226
 30
0.0
 10
98.07242281728165
 20
113.7184294671299
 30
0.0
 10
98.14063831602766
 20
113.7310274282448
 30
0.0
 10
98.18071406074249
 20
113.7384285714285
 30
0.0
  0
LINE
  5
9B
330
1F
100
AcDbEntity
  8
0
  6
Continuous
 62
     7
370
    25
100
AcDbLine
 10
111.1807140607
 20
65.2384285714
 30
0.0
 11
171.1807140607
 21
65.2384285714
 31
0.0
  0
LINE
  5
9C
330
1F
100
AcDbEntity
  8
0
  6
Continuous
 62
     7
370
    25
100
AcDbLine
 10
111.1807140607
 20
36.7384285714
 30
0.0
 11
111.1807140607
 21
65.2384285714
 31
0.0
  0
LINE
  5
9D
330
1F
100
AcDbEntity
  8
0
  6
Continuous
 62
     7
370
    25
100
AcDbLine
 10
171.1807140607
 20
65.2384285714
 30
0.0
 11
171.1807140607
 21
36.7384285714
 31
0.0
  0
LINE
  5
9E
330
1F
100
AcDbEntity
  8
0
  6
Continuous
 62
     7
370
    25
100
AcDbLine
 10
81.1807140607
 20
66.2384285714
 30
0.0
 11
81.1807140607
 21
36.7384285714
 31
0.0
  0
LINE
  5
9F
330
1F
100
AcDbEntity
  8
0
  6
Continuous
 62
     7
370
    25
100
AcDbLine
 10
81.1807140607
 20
113.7384285714
 30
0.0
 11
81.1807140607
 21
84.2384285714
 31
0.0
  0
LINE
  5
A0
330
1F
100
AcDbEntity
  8
0
  6
Continuous
 62
     7
370
    25
100
AcDbLine
 10
201.1807140607
 20
66.2384285714
 30
0.0
 11
201.1807140607
 21
36.7384285714
 31
0.0
  0
LINE
  5
A1
330
1F
100
AcDbEntity
  8
0
  6
Continuous
 62
     7
370
    25
100
AcDbLine
 10
201.1807140607
 20
113.7384285714
 30
0.0
 11
201.1807140607
 21
84.2384285714
 31
0.0
  0
LINE
  5
A2
330
1F
100
AcDbEntity
  8
0
  6
Continuous
 62
     7
370
    25
100
AcDbLine
 10
141.1807140607
 20
181.7384285714
 30
0.0
 11
172.6807140607
 21
181.7384285714
 31
0.0
  0
LINE
  5
A3
330
1F
100
AcDbEntity
  8
0
  6
Continuous
 62
     7
370
    25
100
AcDbLine
 10
109.6807140607
 20
181.7384285714
 30
0.0
 11
141.1807140607
 21
181.7384285714
 31
0.0
  0
LINE
  5
A4
330
1F
100
AcDbEntity
  8
0
  6
Continuous
 62
     7
370
    25
100
AcDbLine
 10
81.1807140607
 20
77.2384285714
 30
0.0
 11
81.1807140607
 21
73.2384285714
 31
0.0
  0
LINE
  5
A5
330
1F
100
AcDbEntity
  8
0
  6
Continuous
 62
     7
370
    25
100
AcDbLine
 10
201.1807140607
 20
77.2384285714
 30
0.0
 11
201.1807140607
 21
73.2384285714
 31
0.0
  0
LINE
  5
A6
330
1F
100
AcDbEntity
  8
0
  6
Continuous
 62
     7
370
    25
100
AcDbLine
 10
98.1807140607
 20
128.7384285714
 30
0.0
 11
84.1807140607
 21
128.7384285714
 31
0.0
  0
LINE
  5
A7
330
1F
100
AcDbEntity
  8
0
  6
Continuous
 62
     7
370
    25
100
AcDbLine
 10
184.1807140607
 20
128.7384285714
 30
0.0
 11
198.1807140607
 21
128.7384285714
 31
0.0
  0
LINE
  5
A8
330
1F
100
AcDbEntity
  8
0
  6
Continuous
 62
     7
370
    25
100
AcDbLine
 10
309.6879199035
 20
113.0981994847
 30
0.0
 11
309.6879199035
 21
128.7384285714
 31
0.0
  0
LINE
  5
A9
330
1F
100
AcDbEntity
  8
0
  6
Continuous
 62
     7
370
    25
100
AcDbLine
 10
295.6879199035
 20
128.7384285714
 30
0.0
 11
295.6879199035
 21
113.1010711859
 31
0.0
  0
LINE
  5
AA
330
1F
100
AcDbEntity
  8
0
  6
Continuous
 62
     7
370
    25
100
AcDbLine
 10
271.1879199035
 20
181.7384285714
 30
0.0
 11
271.1879199035
 21
97.389301882
 31
0.0
  0
LINE
  5
AB
330
1F
100
AcDbEntity
  8
0
  6
Continuous
 62
     7
370
    25
100
AcDbLine
 10
334.1879199035
 20
97.3743721926
 30
0.0
 11
334.1879199035
 21
181.7384285714
 31
0.0
  0
LINE
  5
AC
330
1F
100
AcDbEntity
  8
0
  6
Continuous
 62
     7
370
    25
100
AcDbLine
 10
340.1211938719
 20
84.2384285714
 30
0.0
 11
355.1211938719
 21
84.2384285714
 31
0.0
  0
LINE
  5
AD
330
1F
100
AcDbEntity
  8
0
  6
Continuous
 62
     7
370
    25
100
AcDbLine
 10
355.1211938719
 20
84.2384285714
 30
0.0
 11
355.1211938719
 21
77.2384285714
 31
0.0
  0
LINE
  5
AE
330
1F
100
AcDbEntity
  8
0
  6
Continuous
 62
     7
370
    25
100
AcDbLine
 10
355.1211938719
 20
77.2384285714
 30
0.0
 11
334.1243637227
 21
77.2384285714
 31
0.0
  0
ARC
  5
AF
330
1F
100
AcDbEntity
  8
0
  6
Continuous
 62
     7
370
    25
100
AcDbCircle
 10
302.6879199035
 20
75.2384285714
 30
0.0
 40
31.49999999999998
100
AcDbArc
 50
3.6402758756
 51
356.3597241244
  0
LINE
  5
B0
330
1F
100
AcDbEntity
  8
0
  6
Continuous
 62
     7
370
    25
100
AcDbLine
 10
334.1243637227
 20
73.2384285714
 30
0.0
 11
355.1211938719
 21
73.2384285714
 31
0.0
  0
LINE
  5
B1
330
1F
100
AcDbEntity
  8
0
  6
Continuous
 62
     7
370
    25
100
AcDbLine
 10
355.1211938719
 20
73.2384285714
 30
0.0
 11
355.1211938719
 21
66.2384285714
 31
0.0
  0
LINE
  5
B2
330
1F
100
AcDbEntity
  8
0
  6
Continuous
 62
     7
370
    25
100
AcDbLine
 10
355.1211938719
 20
66.2384285714
 30
0.0
 11
340.1211938719
 21
66.2384285714
 31
0.0
  0
ARC
  5
B3
330
1F
100
AcDbEntity
  8
0
  6
Continuous
 62
     7
370
    25
100
AcDbCircle
 10
302.6879199035
 20
75.2384285714
 30
0.0
 40
38.49999999999999
100
AcDbArc
 50
13.5189076399
 51
346.4810923601
  0
LINE
  5
B4
330
1F
100
AcDbEntity
  8
0
  6
Continuous
 62
     7
370
    25
100
AcDbLine
 10
309.6879199035
 20
128.7384285714
 30
0.0
 11
295.6879199035
 21
128.7384285714
 31
0.0
  0
LINE
  5
B5
330
1F
100
AcDbEntity
  8
0
  6
Continuous
 62
     7
370
    25
100
AcDbLine
 10
271.1879199035
 20
181.7384285714
 30
0.0
 11
334.1879199035
 21
181.7384285714
 31
0.0
  0
LINE
  5
B6
330
1F
100
AcDbEntity
  8
0
  6
Continuous
 62
     7
370
    25
100
AcDbLine
 10
81.1807140607
 20
248.5151280365
 30
0.0
 11
201.1807140607
 21
248.5151280365
 31
0.0
  0
LINE
  5
B7
330
1F
100
AcDbEntity
  8
0
  6
Continuous
 62
     7
370
    25
100
AcDbLine
 10
201.1807140607
 20
324.448402005
 30
0.0
 11
81.1807140607
 21
324.448402005
 31
0.0
  0
LINE
  5
B8
330
1F
100
AcDbEntity
  8
0
  6
Continuous
 62
     7
370
    25
100
AcDbLine
 10
201.1807140607
 20
324.448402005
 30
0.0
 11
201.1807140607
 21
248.5151280365
 31
0.0
  0
LINE
  5
B9
330
1F
100
AcDbEntity
  8
0
  6
Continuous
 62
     7
370
    25
100
AcDbLine
 10
81.1807140607
 20
324.448402005
 30
0.0
 11
81.1807140607
 21
248.5151280365
 31
0.0
  0
LINE
  5
BA
330
1F
100
AcDbEntity
  8
0
  6
Continuous
 62
     7
370
    25
100
AcDbLine
 10
111.1807140607
 20
324.1937509265
 30
0.0
 11
171.1807140607
 21
324.1937509265
 31
0.0
  0
LINE
  5
BB
330
1F
100
AcDbEntity
  8
0
  6
Continuous
 62
     7
370
    25
100
AcDbLine
 10
111.1807140607
 20
249.8365051465
 30
0.0
 11
111.1807140607
 21
324.1937509265
 31
0.0
  0
LINE
  5
BC
330
1F
100
AcDbEntity
  8
0
  6
Continuous
 62
     7
370
    25
100
AcDbLine
 10
171.1807140607
 20
249.8365051465
 30
0.0
 11
111.1807140607
 21
249.8365051465
 31
0.0
  0
LINE
  5
BD
330
1F
100
AcDbEntity
  8
0
  6
Continuous
 62
     7
370
    25
100
AcDbLine
 10
171.1807140607
 20
324.1937509265
 30
0.0
 11
171.1807140607
 21
249.8365051465
 31
0.0
  0
SPLINE
  5
BE
330
1F
100
AcDbEntity
  8
0
  6
Continuous
 62
     7
370
    25
100
AcDbSpline
210
0.0
220
0.0
230
1.0
 70
    11
 71
     3
 72
   144
 73
   140
 74
     0
 42
0.00000001
 43
0.00000001
 40
0.0
 40
0.0
 40
0.0
 40
0.0
 40
0.0312500000000001
 40
0.0312500000000001
 40
0.0390625000000001
 40
0.0390625000000001
 40
0.0468750000000001
 40
0.0468750000000001
 40
0.0625000000000001
 40
0.0625000000000001
 40
0.0781250000000002
 40
0.0781250000000002
 40
0.0937500000000002
 40
0.0937500000000002
 40
0.1250000000000003
 40
0.1250000000000003
 40
0.1406250000000003
 40
0.1406250000000003
 40
0.1562500000000003
 40
0.1562500000000003
 40
0.1875000000000003
 40
0.1875000000000003
 40
0.1953125000000003
 40
0.1953125000000003
 40
0.2031250000000003
 40
0.2031250000000003
 40
0.2187500000000003
 40
0.2187500000000003
 40
0.2265625000000003
 40
0.2265625000000003
 40
0.2343750000000003
 40
0.2343750000000003
 40
0.2500000000000003
 40
0.2500000000000003
 40
0.2656250000000003
 40
0.2656250000000003
 40
0.2734375000000003
 40
0.2734375000000003
 40
0.2812500000000003
 40
0.2812500000000003
 40
0.3125000000000004
 40
0.3125000000000004
 40
0.3203125000000005
 40
0.3203125000000005
 40
0.3281250000000005
 40
0.3281250000000005
 40
0.3437500000000004
 40
0.3437500000000004
 40
0.3593750000000004
 40
0.3593750000000004
 40
0.3750000000000004
 40
0.3750000000000004
 40
0.4062500000000004
 40
0.4062500000000004
 40
0.4218750000000003
 40
0.4218750000000003
 40
0.4375000000000003
 40
0.4375000000000003
 40
0.4531250000000003
 40
0.4531250000000003
 40
0.4609375000000003
 40
0.4609375000000003
 40
0.4687500000000003
 40
0.4687500000000003
 40
0.4843750000000003
 40
0.4843750000000003
 40
0.4921875000000003
 40
0.4921875000000003
 40
0.5000000000000002
 40
0.5000000000000002
 40
0.5156250000000001
 40
0.5156250000000001
 40
0.5312500000000001
 40
0.5312500000000001
 40
0.546875
 40
0.546875
 40
0.5624999999999999
 40
0.5624999999999999
 40
0.5937499999999998
 40
0.5937499999999998
 40
0.6093749999999997
 40
0.6093749999999997
 40
0.6249999999999996
 40
0.6249999999999996
 40
0.6562499999999996
 40
0.6562499999999996
 40
0.6718749999999994
 40
0.6718749999999994
 40
0.6796874999999994
 40
0.6796874999999994
 40
0.6874999999999994
 40
0.6874999999999994
 40
0.7187499999999996
 40
0.7187499999999996
 40
0.7265624999999996
 40
0.7265624999999996
 40
0.7343749999999996
 40
0.7343749999999996
 40
0.7499999999999996
 40
0.7499999999999996
 40
0.7656249999999997
 40
0.7656249999999997
 40
0.7734374999999997
 40
0.7734374999999997
 40
0.7812499999999997
 40
0.7812499999999997
 40
0.7968749999999997
 40
0.7968749999999997
 40
0.8046874999999997
 40
0.8046874999999997
 40
0.8124999999999998
 40
0.8124999999999998
 40
0.8437499999999997
 40
0.8437499999999997
 40
0.8593749999999997
 40
0.8593749999999997
 40
0.8749999999999998
 40
0.8749999999999998
 40
0.8906249999999998
 40
0.8906249999999998
 40
0.8984374999999998
 40
0.8984374999999998
 40
0.9062499999999998
 40
0.9062499999999998
 40
0.9375
 40
0.9375
 40
0.953125
 40
0.953125
 40
0.9609375
 40
0.9609375
 40
0.96875
 40
0.96875
 40
0.9843750000000001
 40
0.9843750000000001
 40
0.9921875000000001
 40
0.9921875000000001
 40
0.9960937500000001
 40
0.9960937500000001
 40
1.0
 40
1.0
 40
1.0
 40
1.0
 10
141.1807140607425
 20
261.3151280364947
 30
0.0
 10
142.9928472393699
 20
261.3151280364947
 30
0.0
 10
144.7439668221026
 20
261.5039286915396
 30
0.0
 10
146.8729728215197
 20
261.9496648632045
 30
0.0
 10
147.2940386749674
 20
262.0491726948092
 30
0.0
 10
148.1185426768413
 20
262.2656189897366
 30
0.0
 10
148.5234662077667
 20
262.3828611974906
 30
0.0
 10
149.718729324182
 20
262.7604251885232
 30
0.0
 10
150.4896875118891
 20
263.0464612070522
 30
0.0
 10
151.989370774829
 20
263.6843132986421
 30
0.0
 10
152.7183310056252
 20
264.0363109762538
 30
0.0
 10
154.1387704149664
 20
264.8063141605666
 30
0.0
 10
154.8210488974818
 20
265.2192860091693
 30
0.0
 10
156.7956748574127
 20
266.5414167004323
 30
0.0
 10
158.0169635225733
 20
267.5327754818913
 30
0.0
 10
159.7227942521453
 20
269.2018155588475
 30
0.0
 10
160.2700602999292
 20
269.7887432603919
 30
0.0
 10
161.3210743413563
 20
271.0302176501032
 30
0.0
 10
161.8180873224873
 20
271.6769927215882
 30
0.0
 10
163.2189750704916
 20
273.6928409956743
 30
0.0
 10
164.0363321995353
 20
275.1389517792389
 30
0.0
 10
164.8948910909752
 20
277.0999320996376
 30
0.0
 10
165.058673320647
 20
277.5009300585352
 30
0.0
 10
165.3651654360354
 20
278.3094279924109
 30
0.0
 10
165.5083285403303
 20
278.717831887012
 30
0.0
 10
165.907346560871
 20
279.955705691694
 30
0.0
 10
166.1328244122186
 20
280.7978028624789
 30
0.0
 10
166.4077350581902
 20
282.087588343884
 30
0.0
 10
166.4887981845912
 20
282.5219650877038
 30
0.0
 10
166.6290572061298
 20
283.3999563311936
 30
0.0
 10
166.688384220978
 20
283.8448555717671
 30
0.0
 10
166.8312232671467
 20
285.1851456682473
 30
0.0
 10
166.8789780763701
 20
286.0766935929126
 30
0.0
 10
166.8823573399943
 20
287.8559403626975
 30
0.0
 10
166.8379751590401
 20
288.7436389583564
 30
0.0
 10
166.7021150742981
 20
290.0722982269784
 30
0.0
 10
166.6452575240149
 20
290.5147023779178
 30
0.0
 10
166.5080852662546
 20
291.398535635867
 30
0.0
 10
166.4279263592061
 20
291.8384229124785
 30
0.0
 10
165.975281960813
 20
294.0046802051932
 30
0.0
 10
165.445828930157
 20
295.6549504271241
 30
0.0
 10
164.592021898766
 20
297.6257446997132
 30
0.0
 10
164.4118301252536
 20
298.0144460522768
 30
0.0
 10
164.0363788740085
 20
298.7747341675998
 30
0.0
 10
163.8406914104084
 20
299.1473299562127
 30
0.0
 10
163.2305832051863
 20
300.2436146599004
 30
0.0
 10
162.7931955571124
 20
300.9458612198056
 30
0.0
 10
161.8595222097829
 20
302.2975223839362
 30
0.0
 10
161.3617611167907
 20
302.9486417358562
 30
0.0
 10
160.3138770203286
 20
304.1928343516026
 30
0.0
 10
159.7672204006853
 20
304.7821952998762
 30
0.0
 10
158.0599445635913
 20
306.4606716364229
 30
0.0
 10
156.8334383193629
 20
307.4611452218182
 30
0.0
 10
154.8418552612229
 20
308.7982079373093
 30
0.0
 10
154.1550341743805
 20
309.2142396592424
 30
0.0
 10
152.745263066014
 20
309.9802046868139
 30
0.0
 10
152.0202860591592
 20
310.3315684148535
 30
0.0
 10
150.522895643011
 20
310.9708446049954
 30
0.0
 10
149.7505466098963
 20
311.258801150724
 30
0.0
 10
148.5476804005136
 20
311.6402115073424
 30
0.0
 10
148.1378442111445
 20
311.759254170489
 30
0.0
 10
147.3094761967351
 20
311.9773337231939
 30
0.0
 10
146.8912539366961
 20
312.0763775427149
 30
0.0
 10
145.6234310066445
 20
312.3429434987509
 30
0.0
 10
144.7607110138471
 20
312.4800620582099
 30
0.0
 10
143.4354762014138
 20
312.6198806894229
 30
0.0
 10
142.9866331131393
 20
312.6555597198819
 30
0.0
 10
142.0865992012492
 20
312.7031106868794
 30
0.0
 10
141.6381995171309
 20
312.7149402254599
 30
0.0
 10
140.297768575991
 20
312.71549700728
 30
0.0
 10
139.4105147246507
 20
312.6693934371368
 30
0.0
 10
137.6480344340456
 20
312.4865848772646
 30
0.0
 10
136.7675462698205
 20
312.3481397274824
 30
0.0
 10
135.0749460159288
 20
311.9942618859596
 30
0.0
 10
134.2556009847507
 20
311.7786542616318
 30
0.0
 10
132.6602760213227
 20
311.2760339930894
 30
0.0
 10
131.8843279891582
 20
310.9889727495457
 30
0.0
 10
129.6109412135248
 20
310.0225714740759
 30
0.0
 10
128.2108647407163
 20
309.2586370299823
 30
0.0
 10
126.2389794567711
 20
307.9402263147913
 30
0.0
 10
125.6033455730667
 20
307.4715194231055
 30
0.0
 10
124.3722431353123
 20
306.4726114994713
 30
0.0
 10
123.775343572045
 20
305.94099552599
 30
0.0
 10
122.0532359338756
 20
304.254939776222
 30
0.0
 10
121.0159976612543
 20
303.0312620811662
 30
0.0
 10
119.6230434945066
 20
301.0300281096246
 30
0.0
 10
119.1861699848837
 20
300.3351414404049
 30
0.0
 10
118.5743551112759
 20
299.2468783852462
 30
0.0
 10
118.3776858038363
 20
298.8764506832469
 30
0.0
 10
117.9995419796966
 20
298.1192864271408
 30
0.0
 10
117.8175140219129
 20
297.7312562324041
 30
0.0
 10
116.9548269530645
 20
295.7643398235364
 30
0.0
 10
116.4186744166707
 20
294.1180865740527
 30
0.0
 10
115.9568073761384
 20
291.9587674624579
 30
0.0
 10
115.8749676789444
 20
291.5217788026764
 30
0.0
 10
115.7332720114324
 20
290.6370604233869
 30
0.0
 10
115.6738863188679
 20
290.1918168444905
 30
0.0
 10
115.5313802133978
 20
288.8590711303809
 30
0.0
 10
115.4830365587511
 20
287.969826488303
 30
0.0
 10
115.4785545141523
 20
286.1898567042268
 30
0.0
 10
115.5224140946846
 20
285.299131592556
 30
0.0
 10
115.6587896124691
 20
283.9619128962568
 30
0.0
 10
115.7163286880678
 20
283.5144158098464
 30
0.0
 10
115.8535076905973
 20
282.6307779152144
 30
0.0
 10
115.933141251809
 20
282.1938096715266
 30
0.0
 10
116.2039815883948
 20
280.8968759102849
 30
0.0
 10
116.4270341723554
 20
280.0508454832386
 30
0.0
 10
116.8224757298619
 20
278.8081066346338
 30
0.0
 10
116.9644578067675
 20
278.3982542874244
 30
0.0
 10
117.2685554035046
 20
277.5871776485958
 30
0.0
 10
117.4311683946208
 20
277.1848816059996
 30
0.0
 10
118.2859799118049
 20
275.2136122036511
 30
0.0
 10
119.1033167603379
 20
273.7562367653869
 30
0.0
 10
120.510098421778
 20
271.7214833946529
 30
0.0
 10
121.0112891630936
 20
271.0670006013667
 30
0.0
 10
122.0575656318354
 20
269.8263624160386
 30
0.0
 10
122.6041358207079
 20
269.2376513124967
 30
0.0
 10
123.743903958124
 20
268.1184195605288
 30
0.0
 10
124.3370932714516
 20
267.5879122457983
 30
0.0
 10
125.2635070805705
 20
266.8336739110286
 30
0.0
 10
125.5784364708683
 20
266.5891971560321
 30
0.0
 10
126.2210936048461
 20
266.1139444781301
 30
0.0
 10
126.5492436927233
 20
265.8829301942131
 30
0.0
 10
128.2095741111944
 20
264.7711423140997
 30
0.0
 10
129.6083598007079
 20
264.0107679026501
 30
0.0
 10
131.8459955787403
 20
263.056611326698
 30
0.0
 10
132.615446821923
 20
262.7699522380536
 30
0.0
 10
133.8137700669042
 20
262.3900651069492
 30
0.0
 10
134.2206093442451
 20
262.271818655575
 30
0.0
 10
135.051167728686
 20
262.0530952957965
 30
0.0
 10
135.4753212085302
 20
261.9526538203461
 30
0.0
 10
136.7521358397446
 20
261.6846290150924
 30
0.0
 10
137.6164432692014
 20
261.548135783375
 30
0.0
 10
138.9354103367193
 20
261.4095809546443
 30
0.0
 10
139.3788202919198
 20
261.374458907908
 30
0.0
 10
140.0499373599096
 20
261.3390393997534
 30
0.0
 10
140.2746434079766
 20
261.3301123876073
 30
0.0
 10
140.7261173359607
 20
261.3181567221703
 30
0.0
 10
140.9541974134141
 20
261.3151280364947
 30
0.0
 10
141.1807140607425
 20
261.3151280364947
 30
0.0
  0
LINE
  5
BF
330
1F
100
AcDbEntity
  8
0
  6
Continuous
 62
     7
370
    25
100
AcDbLine
 10
171.1807140607
 20
316.885682099
 30
0.0
 11
111.1807140607
 21
316.885682099
 31
0.0
  0
LINE
  5
C0
330
1F
100
AcDbEntity
  8
0
  6
Continuous
 62
     7
370
    25
100
AcDbLine
 10
111.1807140607
 20
257.144573974
 30
0.0
 11
171.1807140607
 21
257.144573974
 31
0.0
  0
LINE
  5
C1
330
1F
100
AcDbEntity
  8
0
  6
Continuous
 62
     7
370
    25
100
AcDbLine
 10
201.1807140607
 20
339.448402005
 30
0.0
 11
81.1807140607
 21
339.448402005
 31
0.0
  0
LINE
  5
C2
330
1F
100
AcDbEntity
  8
0
  6
Continuous
 62
     7
370
    25
100
AcDbLine
 10
81.1807140607
 20
339.448402005
 30
0.0
 11
81.1807140607
 21
324.448402005
 31
0.0
  0
LINE
  5
C3
330
1F
100
AcDbEntity
  8
0
  6
Continuous
 62
     7
370
    25
100
AcDbLine
 10
201.1807140607
 20
339.448402005
 30
0.0
 11
201.1807140607
 21
324.448402005
 31
0.0
  0
INSERT
  5
CF
330
1F
100
AcDbEntity
  8
FORMAT
100
AcDbBlockReference
  2
SW_CENTERMARKSYMBOL_0
 10
141.1807140607
 20
287.0151280365
 30
0.0
  0
LINE
  5
D0
330
1F
100
AcDbEntity
  8
0
  6
Continuous
 62
     7
370
    25
100
AcDbLine
 10
-20.4864879906
 20
113.0981994847
 30
0.0
 11
-20.4864879906
 21
128.7384285714
 31
0.0
  0
LINE
  5
D1
330
1F
100
AcDbEntity
  8
0
  6
Continuous
 62
     7
370
    25
100
AcDbLine
 10
-34.4864879906
 20
128.7384285714
 30
0.0
 11
-34.4864879906
 21
113.1010711859
 31
0.0
  0
LINE
  5
D2
330
1F
100
AcDbEntity
  8
0
  6
Continuous
 62
     7
370
    25
100
AcDbLine
 10
-58.9864879906
 20
181.7384285714
 30
0.0
 11
-58.9864879906
 21
97.3743721926
 31
0.0
  0
LINE
  5
D3
330
1F
100
AcDbEntity
  8
0
  6
Continuous
 62
     7
370
    25
100
AcDbLine
 10
4.0135120094
 20
97.389301882
 30
0.0
 11
4.0135120094
 21
181.7384285714
 31
0.0
  0
LINE
  5
D4
330
1F
100
AcDbEntity
  8
0
  6
Continuous
 62
     7
370
    25
100
AcDbLine
 10
-79.9197619591
 20
66.2384285714
 30
0.0
 11
-64.9197619591
 21
66.2384285714
 31
0.0
  0
LINE
  5
D5
330
1F
100
AcDbEntity
  8
0
  6
Continuous
 62
     7
370
    25
100
AcDbLine
 10
-79.9197619591
 20
73.2384285714
 30
0.0
 11
-79.9197619591
 21
66.2384285714
 31
0.0
  0
LINE
  5
D6
330
1F
100
AcDbEntity
  8
0
  6
Continuous
 62
     7
370
    25
100
AcDbLine
 10
-58.9229318098
 20
73.2384285714
 30
0.0
 11
-79.9197619591
 21
73.2384285714
 31
0.0
  0
ARC
  5
D7
330
1F
100
AcDbEntity
  8
0
  6
Continuous
 62
     7
370
    25
100
AcDbCircle
 10
-27.4864879906
 20
75.2384285714
 30
0.0
 40
31.5
100
AcDbArc
 50
183.6402758756
 51
176.3597241244
  0
LINE
  5
D8
330
1F
100
AcDbEntity
  8
0
  6
Continuous
 62
     7
370
    25
100
AcDbLine
 10
-79.9197619591
 20
77.2384285714
 30
0.0
 11
-58.9229318098
 21
77.2384285714
 31
0.0
  0
LINE
  5
D9
330
1F
100
AcDbEntity
  8
0
  6
Continuous
 62
     7
370
    25
100
AcDbLine
 10
-79.9197619591
 20
84.2384285714
 30
0.0
 11
-79.9197619591
 21
77.2384285714
 31
0.0
  0
LINE
  5
DA
330
1F
100
AcDbEntity
  8
0
  6
Continuous
 62
     7
370
    25
100
AcDbLine
 10
-64.9197619591
 20
84.2384285714
 30
0.0
 11
-79.9197619591
 21
84.2384285714
 31
0.0
  0
ARC
  5
DB
330
1F
100
AcDbEntity
  8
0
  6
Continuous
 62
     7
370
    25
100
AcDbCircle
 10
-27.4864879906
 20
75.2384285714
 30
0.0
 40
38.5
100
AcDbArc
 50
193.5189076399
 51
166.4810923601
  0
LINE
  5
DC
330
1F
100
AcDbEntity
  8
0
  6
Continuous
 62
     7
370
    25
100
AcDbLine
 10
-34.4864879906
 20
128.7384285714
 30
0.0
 11
-20.4864879906
 21
128.7384285714
 31
0.0
  0
LINE
  5
DD
330
1F
100
AcDbEntity
  8
0
  6
Continuous
 62
     7
370
    25
100
AcDbLine
 10
-58.9864879906
 20
181.7384285714
 30
0.0
 11
4.0135120094
 21
181.7384285714
 31
0.0
  0
LINE
  5
DE
330
1F
100
AcDbEntity
  8
0
  6
Continuous
 62
     7
370
    25
100
AcDbLine
 10
201.1807140607
 20
-52.3151135748
 30
0.0
 11
81.1807140607
 21
-52.3151135748
 31
0.0
  0
CIRCLE
  5
DF
330
1F
100
AcDbEntity
  8
0
  6
Continuous
 62
     7
370
    25
100
AcDbCircle
 10
141.1807140607
 20
-90.8151135748
 30
0.0
 40
25.7
  0
CIRCLE
  5
E0
330
1F
100
AcDbEntity
  8
0
  6
Continuous
 62
     7
370
    25
100
AcDbCircle
 10
141.1807140607
 20
-90.8151135748
 30
0.0
 40
31.5
  0
CIRCLE
  5
E1
330
1F
100
AcDbEntity
  8
0
  6
Continuous
 62
     7
370
    25
100
AcDbCircle
 10
91.1807140607
 20
-90.8151135748
 30
0.0
 40
4.600000000000009
  0
CIRCLE
  5
E2
330
1F
100
AcDbEntity
  8
0
  6
Continuous
 62
     7
370
    25
100
AcDbCircle
 10
91.1807140607
 20
-90.8151135748
 30
0.0
 40
7.000000000000014
  0
CIRCLE
  5
E3
330
1F
100
AcDbEntity
  8
0
  6
Continuous
 62
     7
370
    25
100
AcDbCircle
 10
191.1807140607
 20
-90.8151135748
 30
0.0
 40
4.600000000000023
  0
CIRCLE
  5
E4
330
1F
100
AcDbEntity
  8
0
  6
Continuous
 62
     7
370
    25
100
AcDbCircle
 10
191.1807140607
 20
-90.8151135748
 30
0.0
 40
7.0
  0
CIRCLE
  5
E5
330
1F
100
AcDbEntity
  8
0
  6
Continuous
 62
     7
370
    25
100
AcDbCircle
 10
91.1807140607
 20
-90.8151135748
 30
0.0
 40
1.500000000000014
  0
CIRCLE
  5
E6
330
1F
100
AcDbEntity
  8
0
  6
Continuous
 62
     7
370
    25
100
AcDbCircle
 10
91.1807140607
 20
-90.8151135748
 30
0.0
 40
2.000000000000014
  0
CIRCLE
  5
E7
330
1F
100
AcDbEntity
  8
0
  6
Continuous
 62
     7
370
    25
100
AcDbCircle
 10
191.1807140607
 20
-90.8151135748
 30
0.0
 40
1.500000000000028
  0
CIRCLE
  5
E8
330
1F
100
AcDbEntity
  8
0
  6
Continuous
 62
     7
370
    25
100
AcDbCircle
 10
191.1807140607
 20
-90.8151135748
 30
0.0
 40
2.000000000000028
  0
LINE
  5
E9
330
1F
100
AcDbEntity
  8
0
  6
Continuous
 62
     7
370
    25
100
AcDbLine
 10
201.1807140607
 20
-52.3151135748
 30
0.0
 11
201.1807140607
 21
-128.2483875433
 31
0.0
  0
LINE
  5
EA
330
1F
100
AcDbEntity
  8
0
  6
Continuous
 62
     7
370
    25
100
AcDbLine
 10
201.1807140607
 20
-128.2483875433
 30
0.0
 11
81.1807140607
 21
-128.2483875433
 31
0.0
  0
LINE
  5
EB
330
1F
100
AcDbEntity
  8
0
  6
Continuous
 62
     7
370
    25
100
AcDbLine
 10
81.1807140607
 20
-52.3151135748
 30
0.0
 11
81.1807140607
 21
-128.2483875433
 31
0.0
  0
LINE
  5
EC
330
1F
100
AcDbEntity
  8
0
  6
Continuous
 62
     7
370
    25
100
AcDbLine
 10
201.1807140607
 20
-143.2483875433
 30
0.0
 11
81.1807140607
 21
-143.2483875433
 31
0.0
  0
LINE
  5
ED
330
1F
100
AcDbEntity
  8
0
  6
Continuous
 62
     7
370
    25
100
AcDbLine
 10
81.1807140607
 20
-128.2483875433
 30
0.0
 11
81.1807140607
 21
-143.2483875433
 31
0.0
  0
LINE
  5
EE
330
1F
100
AcDbEntity
  8
0
  6
Continuous
 62
     7
370
    25
100
AcDbLine
 10
201.1807140607
 20
-128.2483875433
 30
0.0
 11
201.1807140607
 21
-143.2483875433
 31
0.0
  0
INSERT
  5
FA
330
1F
100
AcDbEntity
  8
FORMAT
100
AcDbBlockReference
  2
SW_CENTERMARKSYMBOL_1
 10
141.1807140607
 20
-90.8151135748
 30
0.0
  0
INSERT
  5
106
330
1F
100
AcDbEntity
  8
FORMAT
100
AcDbBlockReference
  2
SW_CENTERMARKSYMBOL_2
 10
91.1807140607
 20
-90.8151135748
 30
0.0
  0
INSERT
  5
112
330
1F
100
AcDbEntity
  8
FORMAT
100
AcDbBlockReference
  2
SW_CENTERMARKSYMBOL_3
 10
191.1807140607
 20
-90.8151135748
 30
0.0
  0
LINE
  5
113
330
1F
100
AcDbEntity
  8
0
  6
Continuous
 62
     7
370
    25
100
AcDbLine
 10
384.4063550628
 20
-107.537442438
 30
0.0
 11
405.6195584984
 21
-95.2913207606
 31
0.0
  0
LINE
  5
114
330
1F
100
AcDbEntity
  8
0
  6
Continuous
 62
     7
370
    25
100
AcDbLine
 10
320.766744756
 20
-144.27580747
 30
0.0
 11
341.9799481916
 21
-132.0296857926
 31
0.0
  0
LINE
  5
115
330
1F
100
AcDbEntity
  8
0
  6
Continuous
 62
     7
370
    25
100
AcDbLine
 10
367.1226872919
 20
-28.6055583573
 30
0.0
 11
354.2329892847
 21
-36.0466226293
 31
0.0
  0
LINE
  5
116
330
1F
100
AcDbEntity
  8
0
  6
Continuous
 62
     7
370
    25
100
AcDbLine
 10
312.444716024
 20
0.5209135522
 30
0.0
 11
312.444716024
 21
-54.4694283401
 31
0.0
  0
LINE
  5
117
330
1F
100
AcDbEntity
  8
0
  6
Continuous
 62
     7
370
    25
100
AcDbLine
 10
375.444716024
 20
-18.972666427
 30
0.0
 11
375.444716024
 21
0.5209135522
 31
0.0
  0
LINE
  5
118
330
1F
100
AcDbEntity
  8
0
  6
Continuous
 62
     7
370
    25
100
AcDbLine
 10
386.3000550833
 20
-30.4706988452
 30
0.0
 11
386.3000550833
 21
-22.3455466822
 31
0.0
  0
LINE
  5
119
330
1F
100
AcDbEntity
  8
0
  6
Continuous
 62
     7
370
    25
100
AcDbLine
 10
372.3000550833
 20
-22.3455466822
 30
0.0
 11
372.3000550833
 21
-26.9134571339
 31
0.0
  0
LINE
  5
11A
330
1F
100
AcDbEntity
  8
0
  6
Continuous
 62
     7
370
    25
100
AcDbLine
 10
349.2951993122
 20
-47.8938317673
 30
0.0
 11
359.90180103
 21
-54.0168926059
 31
0.0
  0
LINE
  5
11B
330
1F
100
AcDbEntity
  8
0
  6
Continuous
 62
     7
370
    25
100
AcDbLine
 10
349.2951993122
 20
-42.1780460841
 30
0.0
 11
349.2951993122
 21
-47.8938317673
 31
0.0
  0
LINE
  5
11C
330
1F
100
AcDbEntity
  8
0
  6
Continuous
 62
     7
370
    25
100
AcDbLine
 10
364.1422002942
 20
-50.7490373123
 30
0.0
 11
349.2951993122
 21
-42.1780460841
 31
0.0
  0
LWPOLYLINE
  5
11D
330
1F
100
AcDbEntity
  8
0
  6
Continuous
 62
     7
370
    25
100
AcDbPolyline
 90
       92
 70
   128
 43
0.0
 10
364.1422002942
 20
-47.4828740647
 10
364.2886439728
 20
-45.8359662571
 10
364.5361089516
 20
-44.2627686071
 10
364.883463146
 20
-42.7704780636
 10
365.3291175055
 20
-41.3659214476
 10
365.8710332835
 20
-40.0555242214
 10
366.5067313633
 20
-38.8452810938
 10
367.2333036004
 20
-37.740728596
 10
368.0474261253
 20
-36.7469197537
 10
368.9453745504
 20
-35.8684009703
 10
369.9230410071
 20
-35.109191229
 10
370.9759529389
 20
-34.4727637066
 10
372.0992935617
 20
-33.962029885
 10
373.2879238995
 20
-33.5793262316
 10
374.5364062937
 20
-33.3264035111
 10
375.8390292788
 20
-33.2044187756
 10
377.189833711
 20
-33.2139300719
 10
378.5826400297
 20
-33.3548938886
 10
380.0110765268
 20
-33.6266653546
 10
381.4686084961
 20
-34.0280011898
 10
382.9485681278
 20
-34.5570653927
 10
384.4441850112
 20
-35.2114376391
 10
385.9486171083
 20
-35.9881243552
 10
387.4549820537
 20
-36.8835724116
 10
388.9563886401
 20
-37.8936853784
 10
390.4459683429
 20
-39.0138422651
 10
391.9169067424
 20
-40.2389186605
 10
393.362474698
 20
-41.5633101751
 10
394.7760591316
 20
-42.9809580801
 10
396.1511932813
 20
-44.4853770241
 10
397.4815862843
 20
-46.0696847019
 10
398.7611519567
 20
-47.7266333395
 10
399.9840366356
 20
-49.4486428499
 10
401.1446459581
 20
-51.2278355109
 10
402.2376704541
 20
-53.0560720026
 10
403.2581098354
 20
-54.9249886433
 10
404.2012958711
 20
-56.8260356506
 10
405.062913743
 20
-58.7505162545
 10
405.8390217852
 20
-60.6896264827
 10
406.5260695156
 20
-62.6344954363
 10
407.1209138788
 20
-64.576225872
 10
407.6208336246
 20
-66.5059349042
 10
408.0235417569
 20
-68.4147946419
 10
408.3271959961
 20
-70.294072574
 10
408.5304072072
 20
-72.1351715182
 10
408.6322457545
 20
-73.9296689503
 10
408.6322457545
 20
-75.6693555355
 10
408.5304072072
 20
-77.3462726837
 10
408.3271959961
 20
-78.9527489575
 10
408.0235417569
 20
-80.4814351676
 10
407.6208336246
 20
-81.9253379927
 10
407.1209138788
 20
-83.2778519723
 10
406.5260695156
 20
-84.532789725
 10
405.8390217852
 20
-85.6844102539
 10
405.062913743
 20
-86.7274452101
 10
404.2012958711
 20
-87.657122994
 10
403.2581098354
 20
-88.4691905841
 10
402.2376704541
 20
-89.1599329932
 10
401.1446459581
 20
-89.726190264
 10
399.9840366356
 20
-90.1653719241
 10
398.7611519567
 20
-90.4754688377
 10
397.4815862843
 20
-90.6550623962
 10
396.1511932813
 20
-90.7033310083
 10
394.7760591316
 20
-90.6200538582
 10
393.362474698
 20
-90.4056119161
 10
391.9169067424
 20
-90.0609861952
 10
390.4459683429
 20
-89.587753264
 10
388.9563886401
 20
-88.9880780336
 10
387.4549820537
 20
-88.2647038541
 10
385.9486171083
 20
-87.4209399646
 10
384.4441850112
 20
-86.460646354
 10
382.9485681278
 20
-85.3882161029
 10
381.4686084961
 20
-84.2085552864
 10
380.0110765268
 20
-82.9270605298
 10
378.5826400297
 20
-81.5495943213
 10
377.189833711
 20
-80.0824581918
 10
375.8390292788
 20
-78.5323638878
 10
374.5364062937
 20
-76.9064026668
 10
373.2879238995
 20
-75.2120128564
 10
372.0992935617
 20
-73.4569458266
 10
370.9759529389
 20
-71.6492305289
 10
369.9230410071
 20
-69.7971367662
 10
368.9453745504
 20
-67.9091373609
 10
368.0474261253
 20
-65.9938693938
 10
367.2333036004
 20
-64.0600946919
 10
366.5067313633
 20
-62.1166597454
 10
365.8710332835
 20
-60.1724552376
 10
365.3291175055
 20
-58.2363753722
 10
364.883463146
 20
-56.317277185
 10
364.5361089516
 20
-54.4239400251
 10
364.2886439728
 20
-52.5650253923
 10
364.1422002942
 20
-50.7490373123
  0
LINE
  5
11E
330
1F
100
AcDbEntity
  8
0
  6
Continuous
 62
     7
370
    25
100
AcDbLine
 10
349.2951993122
 20
-38.9118828365
 30
0.0
 11
364.1422002942
 21
-47.4828740647
 31
0.0
  0
LINE
  5
11F
330
1F
100
AcDbEntity
  8
0
  6
Continuous
 62
     7
370
    25
100
AcDbLine
 10
349.2951993122
 20
-33.1960971533
 30
0.0
 11
349.2951993122
 21
-38.9118828365
 31
0.0
  0
LINE
  5
120
330
1F
100
AcDbEntity
  8
0
  6
Continuous
 62
     7
370
    25
100
AcDbLine
 10
359.90180103
 20
-39.319157992
 30
0.0
 11
349.2951993122
 21
-33.1960971533
 31
0.0
  0
LWPOLYLINE
  5
121
330
1F
100
AcDbEntity
  8
0
  6
Continuous
 62
     7
370
    25
100
AcDbPolyline
 90
       96
 70
   128
 43
0.0
 10
359.90180103
 20
-54.0168926059
 10
360.340358851
 20
-56.1249091643
 10
360.8762919779
 20
-58.2547102562
 10
361.5075956041
 20
-60.3983287689
 10
362.2319081628
 20
-62.5477459018
 10
363.0465201617
 20
-64.6949211628
 10
363.9483843183
 20
-66.8318224462
 10
364.934126959
 20
-68.950456079
 10
366.0000606397
 20
-71.0428967233
 10
367.1421979392
 20
-73.1013170236
 10
368.3562663755
 20
-75.1180168867
 10
369.6377243884
 20
-77.0854522864
 10
370.9817783281
 20
-78.996263484
 10
372.3834003873
 20
-80.8433025591
 10
373.8373474092
 20
-82.619660149
 10
375.3381805011
 20
-84.3186912943
 10
376.8802853797
 20
-85.9340402971
 10
378.4578933732
 20
-87.4596644956
 10
380.0651030006
 20
-88.8898568685
 10
381.6959020476
 20
-90.2192673838
 10
383.3441900573
 20
-91.442923012
 10
385.0038011503
 20
-92.5562463295
 10
386.6685270903
 20
-93.5550726407
 10
388.3321405072
 20
-94.4356655586
 10
389.9884181928
 20
-95.1947309804
 10
391.6311643803
 20
-95.8294294112
 10
393.254233921
 20
-96.337386585
 10
394.8515552723
 20
-96.7167023469
 10
396.4171532099
 20
-96.965957761
 10
397.9451711796
 20
-97.084220418
 10
399.4298932057
 20
-97.0710479236
 10
400.8657652728
 20
-96.9264895532
 10
402.2474161026
 20
-96.6510860676
 10
403.5696772461
 20
-96.2458676901
 10
404.8276024181
 20
-95.7123502525
 10
406.0164860001
 20
-95.0525295251
 10
407.1318806426
 20
-94.2688737506
 10
408.169613902
 20
-93.3643144113
 10
409.1258038487
 20
-92.3422352627
 10
409.9968735885
 20
-91.2064596758
 10
410.7795646431
 20
-89.9612363348
 10
411.470949139
 20
-88.6112233437
 10
412.0684407605
 20
-87.1614708012
 10
412.569804424
 20
-85.6174019094
 10
412.9731646396
 20
-83.9847926871
 10
413.2770125262
 20
-82.2697503628
 10
413.4802114563
 20
-80.4786905288
 10
413.582001308
 20
-78.6183131422
 10
413.582001308
 20
-76.6955774614
 10
413.4802114563
 20
-74.7176760135
 10
413.2770125262
 20
-72.6920076885
 10
412.9731646396
 20
-70.6261500617
 10
412.569804424
 20
-68.5278310474
 10
412.0684407605
 20
-66.4048999911
 10
411.470949139
 20
-64.2652983063
 10
410.7795646431
 20
-62.1170297676
 10
409.9968735885
 20
-59.9681305703
 10
409.1258038487
 20
-57.826639269
 10
408.169613902
 20
-55.7005667071
 10
407.1318806426
 20
-53.5978660496
 10
406.0164860001
 20
-51.5264030327
 10
404.8276024181
 20
-49.4939265394
 10
403.5696772461
 20
-47.5080396127
 10
402.2474161026
 20
-45.5761710145
 10
400.8657652728
 20
-43.7055474361
 10
399.4298932057
 20
-41.9031664647
 10
397.9451711796
 20
-40.1757704073
 10
396.4171532099
 20
-38.5298210688
 10
394.8515552723
 20
-36.97147558
 10
393.254233921
 20
-35.5065633652
 10
391.6311643803
 20
-34.1405643356
 10
389.9884181928
 20
-32.8785883901
 10
388.3321405072
 20
-31.7253563005
 10
386.6685270902
 20
-30.6851820519
 10
385.0038011503
 20
-29.7619567049
 10
383.3441900573
 20
-28.9591338406
 10
381.6959020476
 20
-28.279716641
 10
380.0651030006
 20
-27.7262466549
 10
378.4578933732
 20
-27.3007942905
 10
376.8802853797
 20
-27.0049510707
 10
375.3381805011
 20
-26.8398236791
 10
373.8373474092
 20
-26.8060298209
 10
372.3834003873
 20
-26.9036959111
 10
370.9817783281
 20
-27.1324566027
 10
369.6377243884
 20
-27.4914561528
 10
368.3562663755
 20
-27.9793516237
 10
367.1421979392
 20
-28.5943179069
 10
366.0000606397
 20
-29.3340545502
 10
364.934126959
 20
-30.1957943631
 10
363.9483843183
 20
-31.1763137683
 10
363.0465201617
 20
-32.2719448605
 10
362.2319081628
 20
-33.4785891273
 10
361.5075956041
 20
-34.7917327805
 10
360.8762919779
 20
-36.2064636413
 10
360.340358851
 20
-37.7174895158
 10
359.90180103
 20
-39.319157992
  0
LINE
  5
122
330
1F
100
AcDbEntity
  8
0
  6
Continuous
 62
     7
370
    25
100
AcDbLine
 10
359.90180103
 20
-54.0168926059
 30
0.0
 11
275.0489872876
 21
-103.0013793153
 31
0.0
  0
LWPOLYLINE
  5
123
330
1F
100
AcDbEntity
  8
0
  6
Continuous
 62
     7
370
    25
100
AcDbPolyline
 90
       36
 70
   128
 43
0.0
 10
275.0489872876
 20
-103.0013793153
 10
275.4875451086
 20
-105.1093958736
 10
276.0234782355
 20
-107.2391969656
 10
276.6547818617
 20
-109.3828154783
 10
277.3790944204
 20
-111.5322326112
 10
278.1937064193
 20
-113.6794078722
 10
279.0955705759
 20
-115.8163091556
 10
280.0813132167
 20
-117.9349427883
 10
281.1472468973
 20
-120.0273834327
 10
282.2893841968
 20
-122.085803733
 10
283.5034526332
 20
-124.1025035961
 10
284.784910646
 20
-126.0699389958
 10
286.1289645857
 20
-127.9807501933
 10
287.5305866449
 20
-129.8277892685
 10
288.9845336669
 20
-131.6041468583
 10
290.4853667587
 20
-133.3031780037
 10
292.0274716373
 20
-134.9185270065
 10
293.6050796308
 20
-136.444151205
 10
295.2122892582
 20
-137.8743435778
 10
296.8430883052
 20
-139.2037540931
 10
298.4913763149
 20
-140.4274097214
 10
300.1509874079
 20
-141.5407330388
 10
301.8157133479
 20
-142.5395593501
 10
303.4793267648
 20
-143.4201522679
 10
305.1356044504
 20
-144.1792176898
 10
306.7783506379
 20
-144.8139161206
 10
308.4014201786
 20
-145.3218732944
 10
309.9987415299
 20
-145.7011890563
 10
311.5643394675
 20
-145.9504444703
 10
313.0923574372
 20
-146.0687071273
 10
314.5770794633
 20
-146.055534633
 10
316.0129515304
 20
-145.9109762626
 10
317.3946023602
 20
-145.635572777
 10
318.7168635037
 20
-145.2303543994
 10
319.9747886757
 20
-144.6968369618
 10
320.766744756
 20
-144.27580747
  0
LINE
  5
124
330
1F
100
AcDbEntity
  8
0
  6
Continuous
 62
     7
370
    25
100
AcDbLine
 10
296.4422562276
 20
-91.6757480529
 30
0.0
 11
338.8686630988
 21
-67.1835046982
 31
0.0
  0
LWPOLYLINE
  5
125
330
1F
100
AcDbEntity
  8
0
  6
Continuous
 62
     7
370
    25
100
AcDbPolyline
 90
       43
 70
   128
 43
0.0
 10
349.0207689491
 20
-122.0286773667
 10
348.5296310774
 20
-123.6190156966
 10
347.9384349016
 20
-125.1126541543
 10
347.249473383
 20
-126.5037996456
 10
346.4654186668
 20
-127.7870565964
 10
345.5893117185
 20
-128.9574478797
 10
344.6245505291
 20
-130.0104341192
 10
343.5748769362
 20
-130.9419312954
 10
342.444362111
 20
-131.7483265856
 10
341.2373907685
 20
-132.4264923764
 10
339.9586441612
 20
-132.9737983937
 10
338.6130819227
 20
-133.3881219048
 10
337.2059228319
 20
-133.6678559511
 10
335.7426245719
 20
-133.8119155808
 10
334.2288625619
 20
-133.819742057
 10
332.6705079456
 20
-133.6913050246
 10
331.0736048197
 20
-133.427102628
 10
329.4443467915
 20
-133.0281595795
 10
327.7890529575
 20
-132.4960231843
 10
326.114143394
 20
-131.8327573395
 10
324.4261142574
 20
-131.0409345296
 10
322.7315125884
 20
-130.1236258486
 10
321.0369109194
 20
-129.0843890888
 10
319.3488817827
 20
-127.9272549423
 10
317.6739722192
 20
-126.6567113673
 10
316.0186783852
 20
-125.277686182
 10
314.389420357
 20
-123.7955279516
 10
312.7925172311
 20
-122.2159852441
 10
311.2341626148
 20
-120.5451843345
 10
309.7204006049
 20
-118.7896054435
 10
308.2571023448
 20
-116.9560576045
 10
306.849943254
 20
-115.0516522541
 10
305.5043810155
 20
-113.0837756508
 10
304.2256344082
 20
-111.0600602269
 10
303.0186630657
 20
-108.9883549864
 10
301.8881482405
 20
-106.8766950623
 10
300.8384746476
 20
-104.7332705523
 10
299.8737134582
 20
-102.5663947534
 10
298.9976065099
 20
-100.3844719187
 10
298.2135517938
 20
-98.1959646614
 10
297.5245902751
 20
-96.0093611325
 10
296.9333940993
 20
-93.8331420993
 10
296.4422562276
 20
-91.6757480529
  0
LINE
  5
126
330
1F
100
AcDbEntity
  8
0
  6
Continuous
 62
     7
370
    25
100
AcDbLine
 10
372.2247144345
 20
-108.6333247661
 30
0.0
 11
349.0207689491
 21
-122.0286773667
 31
0.0
  0
LWPOLYLINE
  5
127
330
1F
100
AcDbEntity
  8
0
  6
Continuous
 62
     7
370
    25
100
AcDbPolyline
 90
       35
 70
   128
 43
0.0
 10
338.8686630988
 20
-67.1835046982
 10
339.3598009705
 20
-69.3408987447
 10
339.9509971463
 20
-71.5171177778
 10
340.639958665
 20
-73.7037213067
 10
341.4240133811
 20
-75.892228564
 10
342.3001203294
 20
-78.0741513987
 10
343.2648815188
 20
-80.2410271976
 10
344.3145551117
 20
-82.3844517076
 10
345.4450699369
 20
-84.4961116317
 10
346.6520412794
 20
-86.5678168722
 10
347.9307878867
 20
-88.5915322961
 10
349.2763501252
 20
-90.5594088994
 10
350.683509216
 20
-92.4638142498
 10
352.146807476
 20
-94.2973620889
 10
353.660569486
 20
-96.0529409798
 10
355.2189241023
 20
-97.7237418894
 10
356.8158272282
 20
-99.3032845969
 10
358.4450852564
 20
-100.7854428273
 10
360.1003790904
 20
-102.1644680126
 10
361.7752886539
 20
-103.4350115876
 10
363.4633177905
 20
-104.5921457342
 10
365.1579194596
 20
-105.6313824939
 10
366.8525211286
 20
-106.5486911749
 10
368.5405502652
 20
-107.3405139848
 10
370.2154598287
 20
-108.0037798296
 10
371.8707536627
 20
-108.5359162248
 10
373.5000116909
 20
-108.9348592734
 10
375.0969148168
 20
-109.1990616699
 10
376.6552694331
 20
-109.3274987023
 10
378.1690314431
 20
-109.3196722261
 10
379.6323297031
 20
-109.1756125964
 10
381.0394887939
 20
-108.8958785501
 10
382.3850510324
 20
-108.481555039
 10
383.6637976397
 20
-107.9342490217
 10
384.4063550628
 20
-107.537442438
  0
SPLINE
  5
128
330
1F
100
AcDbEntity
  8
0
  6
Continuous
 62
     7
370
    25
100
AcDbSpline
210
0.0
220
0.0
230
1.0
 70
     8
 71
     3
 72
    18
 73
    14
 74
     0
 42
0.00000001
 43
0.00000001
 40
0.0
 40
0.0
 40
0.0
 40
0.0
 40
0.0360606612425493
 40
0.1622173350395301
 40
0.2883592875023875
 40
0.3859086242206226
 40
0.4834471755452162
 40
0.5835535600358218
 40
0.683643849656052
 40
0.7647562105572167
 40
0.8458612532624652
 40
0.9292274595935517
 40
1.0
 40
1.0
 40
1.0
 40
1.0
 10
369.3986834794366
 20
-68.79692960706588
 30
0.0
 10
369.4357700567249
 20
-68.56625926421201
 30
0.0
 10
369.6026024310118
 20
-67.52859863900248
 30
0.0
 10
369.6720260148639
 20
-65.67009640668498
 30
0.0
 10
369.5982144951653
 20
-63.43988704673471
 30
0.0
 10
369.3337219811938
 20
-61.43098707943449
 30
0.0
 10
368.9433297778812
 20
-59.63186245886706
 30
0.0
 10
368.389467715631
 20
-57.88287506151296
 30
0.0
 10
367.7107275777647
 20
-56.31136730516989
 30
0.0
 10
366.9443108088591
 20
-54.93160068178298
 30
0.0
 10
366.1124256969201
 20
-53.72638929093377
 30
0.0
 10
365.2177632463592
 20
-52.65426046821919
 30
0.0
 10
364.5449519612515
 20
-52.04226303357252
 30
0.0
 10
364.2360318171019
 20
-51.7612654642467
 30
0.0
  0
SPLINE
  5
129
330
1F
100
AcDbEntity
  8
0
  6
Continuous
 62
     7
370
    25
100
AcDbSpline
210
0.0
220
0.0
230
1.0
 70
     8
 71
     3
 72
    11
 73
     7
 74
     0
 42
0.00000001
 43
0.00000001
 40
0.0
 40
0.0
 40
0.0
 40
0.0
 40
0.335255607664366
 40
0.7075057437239664
 40
0.9263585385295636
 40
1.0
 40
1.0
 40
1.0
 40
1.0
 10
334.2829285739273
 20
-75.79715956292117
 30
0.0
 10
335.2618716828069
 20
-76.28799476112277
 30
0.0
 10
337.3277815631415
 20
-77.32382746312844
 30
0.0
 10
340.0789672492572
 20
-78.60245559022947
 30
0.0
 10
342.0431290746065
 20
-79.47728000557149
 30
0.0
 10
342.9010504368918
 20
-79.8307775117954
 30
0.0
 10
343.117049833768
 20
-79.91977779958196
 30
0.0
  0
LINE
  5
12A
330
1F
100
AcDbEntity
  8
0
  6
Continuous
 62
     7
370
    25
100
AcDbLine
 10
364.1422002942
 20
-47.4828740647
 30
0.0
 11
361.3133134331
 21
-49.1159556885
 31
0.0
  0
LWPOLYLINE
  5
12B
330
1F
100
AcDbEntity
  8
0
  6
Continuous
 62
     7
370
    25
100
AcDbPolyline
 90
       21
 70
   128
 43
0.0
 10
308.5928097368
 20
-90.6277494896
 10
309.9232453893
 20
-91.9654447895
 10
311.2983795389
 20
-93.4698637334
 10
312.6287725419
 20
-95.0541714113
 10
313.9083382143
 20
-96.7111200488
 10
315.1312228932
 20
-98.4331295593
 10
316.2918322157
 20
-100.2123222203
 10
317.3848567117
 20
-102.040558712
 10
318.405296093
 20
-103.9094753527
 10
319.3484821287
 20
-105.81052236
 10
320.2101000006
 20
-107.7350029639
 10
320.9862080428
 20
-109.6741131921
 10
321.6732557732
 20
-111.6189821457
 10
322.2681001364
 20
-113.5607125814
 10
322.7680198822
 20
-115.4904216135
 10
323.1707280145
 20
-117.3992813513
 10
323.4743822537
 20
-119.2785592834
 10
323.6775934648
 20
-121.1196582275
 10
323.7794320122
 20
-122.9141556597
 10
323.7794320122
 20
-124.6538422449
 10
323.7678806701
 20
-124.9782659616
  0
LINE
  5
12C
330
1F
100
AcDbEntity
  8
0
  6
Continuous
 62
     7
370
    25
100
AcDbLine
 10
340.2101622084
 20
-72.3754404191
 30
0.0
 11
301.609841253
 21
-94.6589313892
 31
0.0
  0
LINE
  5
12D
330
1F
100
AcDbEntity
  8
0
  6
Continuous
 62
     7
370
    25
100
AcDbLine
 10
343.8531839237
 20
-119.0454940305
 30
0.0
 11
366.1415506615
 21
-106.1786937903
 31
0.0
  0
LWPOLYLINE
  5
12E
330
1F
100
AcDbEntity
  8
0
  6
Continuous
 62
     7
370
    25
100
AcDbPolyline
 90
       38
 70
   128
 43
0.0
 10
301.609841253
 20
-94.6589313892
 10
302.1344154688
 20
-96.586987048
 10
302.7526488927
 20
-98.5245910061
 10
303.4617302909
 20
-100.4629325825
 10
304.2584353256
 20
-102.393197742
 10
305.1391412161
 20
-104.3066091749
 10
306.0998432129
 20
-106.1944662083
 10
307.1361728078
 20
-108.0481843707
 10
308.2434175983
 20
-109.859334427
 10
309.4165427163
 20
-111.6196807078
 10
310.6502137222
 20
-113.3212185591
 10
311.938820862
 20
-114.9562107407
 10
313.2765045756
 20
-116.5172226091
 10
314.6571821421
 20
-117.9971559245
 10
316.0745753386
 20
-119.3892811279
 10
317.5222389885
 20
-120.6872679414
 10
318.9935902696
 20
-121.8852141539
 10
320.4819386471
 20
-122.9776724594
 10
321.9805162967
 20
-123.9596752267
 10
323.48250888
 20
-124.8267570887
 10
324.9810865297
 20
-125.5749752469
 10
326.4694349071
 20
-126.2009274006
 10
327.9407861882
 20
-126.7017672176
 10
329.3884498381
 20
-127.0752172767
 10
330.8058430346
 20
-127.3195794244
 10
332.1865206011
 20
-127.433742496
 10
333.5242043148
 20
-127.4171873687
 10
334.8128114545
 20
-127.269989322
 10
336.0464824604
 20
-126.9928176957
 10
337.2196075784
 20
-126.5869328455
 10
338.326852369
 20
-126.054180413
 10
339.3631819638
 20
-125.3969829321
 10
340.3238839606
 20
-124.6183288142
 10
341.2045898511
 20
-123.7217587585
 10
342.0012948858
 20
-122.7113496522
 10
342.710376284
 20
-121.591696032
 10
343.3286097079
 20
-120.3678891915
 10
343.8531839237
 20
-119.0454940305
  0
LINE
  5
12F
330
1F
100
AcDbEntity
  8
0
  6
Continuous
 62
     7
370
    25
100
AcDbLine
 10
349.2951993122
 20
-42.1780460841
 30
0.0
 11
264.4423855698
 21
-91.1625327934
 31
0.0
  0
LINE
  5
130
330
1F
100
AcDbEntity
  8
0
  6
Continuous
 62
     7
370
    25
100
AcDbLine
 10
349.2951993122
 20
-47.8938317673
 30
0.0
 11
264.4423855698
 21
-96.8783184766
 31
0.0
  0
LINE
  5
131
330
1F
100
AcDbEntity
  8
0
  6
Continuous
 62
     7
370
    25
100
AcDbLine
 10
264.4423855698
 20
-91.1625327934
 30
0.0
 11
264.4423855698
 21
-96.8783184766
 31
0.0
  0
LINE
  5
132
330
1F
100
AcDbEntity
  8
0
  6
Continuous
 62
     7
370
    25
100
AcDbLine
 10
264.4423855698
 20
-96.8783184766
 30
0.0
 11
275.0489872876
 21
-103.0013793153
 31
0.0
  0
LINE
  5
133
330
1F
100
AcDbEntity
  8
0
  6
Continuous
 62
     7
370
    25
100
AcDbLine
 10
349.2951993122
 20
-33.1960971533
 30
0.0
 11
264.4423855698
 21
-82.1805838627
 31
0.0
  0
LINE
  5
134
330
1F
100
AcDbEntity
  8
0
  6
Continuous
 62
     7
370
    25
100
AcDbLine
 10
349.2951993122
 20
-38.9118828365
 30
0.0
 11
264.4423855698
 21
-87.8963695459
 31
0.0
  0
LINE
  5
135
330
1F
100
AcDbEntity
  8
0
  6
Continuous
 62
     7
370
    25
100
AcDbLine
 10
264.4423855698
 20
-82.1805838627
 30
0.0
 11
264.4423855698
 21
-87.8963695459
 31
0.0
  0
LINE
  5
136
330
1F
100
AcDbEntity
  8
0
  6
Continuous
 62
     7
370
    25
100
AcDbLine
 10
264.4423855698
 20
-87.8963695459
 30
0.0
 11
267.2712724309
 21
-89.5294511697
 31
0.0
  0
LINE
  5
137
330
1F
100
AcDbEntity
  8
0
  6
Continuous
 62
     7
370
    25
100
AcDbLine
 10
301.609841253
 20
-94.6589313892
 30
0.0
 11
296.4422562276
 21
-91.6757480529
 31
0.0
  0
LINE
  5
138
330
1F
100
AcDbEntity
  8
0
  6
Continuous
 62
     7
370
    25
100
AcDbLine
 10
349.0207689491
 20
-122.0286773667
 30
0.0
 11
343.8531839237
 21
-119.0454940305
 31
0.0
  0
LWPOLYLINE
  5
139
330
1F
100
AcDbEntity
  8
0
  6
Continuous
 62
     7
370
    25
100
AcDbPolyline
 90
       36
 70
   128
 43
0.0
 10
321.6708524166
 20
13.3793413134
 10
323.2253705757
 20
14.2180754882
 10
324.874426356
 20
14.9943126547
 10
326.610495494
 20
15.7045110207
 10
328.4256567045
 20
16.345430114
 10
330.3116278232
 20
16.9141455677
 10
332.2598035966
 20
17.4080624637
 10
334.2612949452
 20
17.8249271724
 10
336.3069695233
 20
18.1628376359
 10
338.3874933868
 20
18.4202520461
 10
340.4933735827
 20
18.5959958801
 10
342.6150014625
 20
18.6892672592
 10
344.7426965248
 20
18.6996406074
 10
346.8667505852
 20
18.6270685936
 10
348.977472072
 20
18.4718823471
 10
351.0652302473
 20
18.2347899472
 10
353.1204991494
 20
17.9168731922
 10
355.1339010577
 20
17.5195826633
 10
357.0962492809
 20
17.0447311061
 10
358.9985900744
 20
16.4944851593
 10
360.8322434933
 20
15.8713554689
 10
362.5888429977
 20
15.1781852329
 10
364.260373627
 20
14.418137228
 10
365.8392085702
 20
13.5946793789
 10
367.3181439657
 20
12.7115689349
 10
368.6904317703
 20
11.7728353265
 10
369.9498105498
 20
10.7827617797
 10
371.0905340474
 20
9.7458657732
 10
372.1073974035
 20
8.6668784255
 10
372.9957609039
 20
7.5507229085
 10
373.7515711497
 20
6.4024919837
 10
374.3713795521
 20
5.2274247655
 10
374.8523580674
 20
4.0308828162
 10
375.1923121011
 20
2.8183256821
 10
375.3896905208
 20
1.5952859835
 10
375.444716024
 20
0.5209135522
  0
LWPOLYLINE
  5
13A
330
1F
100
AcDbEntity
  8
0
  6
Continuous
 62
     7
370
    25
100
AcDbPolyline
 90
       13
 70
   128
 43
0.0
 10
312.444716024
 20
0.5209135522
 10
312.4727942653
 20
1.2885414291
 10
312.634362539
 20
2.5133311338
 10
312.9387927743
 20
3.7290298939
 10
313.3846959259
 20
4.9300907551
 10
313.97003744
 20
6.1110335519
 10
314.6921465374
 20
7.2664699133
 10
315.5477284001
 20
8.3911278482
 10
316.5328792041
 20
9.4798758004
 10
317.6431039323
 20
10.5277460627
 10
318.873336884
 20
11.5299574434
 10
320.2179647883
 20
12.4819370819
 10
321.6708524166
 20
13.3793413134
  0
LWPOLYLINE
  5
13B
330
1F
100
AcDbEntity
  8
0
  6
Continuous
 62
     7
370
    25
100
AcDbPolyline
 90
       23
 70
   128
 43
0.0
 10
372.3000550833
 20
-22.3455466822
 10
372.3292259301
 20
-21.977012375
 10
372.4964617204
 20
-21.395015274
 10
372.8087042911
 20
-20.8332770997
 10
373.259298734
 20
-20.303770326
 10
373.8386414108
 20
-19.8177804705
 10
374.5343846382
 20
-19.3856655632
 10
375.3316998573
 20
-19.0166353832
 10
376.2135936783
 20
-18.718555168
 10
377.1612700656
 20
-18.49777798
 10
378.1545309423
 20
-18.3590093015
 10
379.1722066772
 20
-18.3052067461
 10
380.192607279
 20
-18.3375170217
 10
381.1939846803
 20
-18.4552514911
 10
382.1549962604
 20
-18.6559008483
 10
383.055159726
 20
-18.9351886007
 10
383.8752896555
 20
-19.2871622146
 10
384.5979064033
 20
-19.7043199837
 10
385.2076086482
 20
-20.1777709144
 10
385.6914016452
 20
-20.6974242219
 10
386.0389741866
 20
-21.2522043982
 10
386.2429183671
 20
-21.8302872672
 10
386.3000550833
 20
-22.3455466822
  0
ENDSEC
  0
SECTION
  2
OBJECTS
  0
DICTIONARY
  5
C
330
0
100
AcDbDictionary
281
     1
  3
ACAD_GROUP
350
D
  3
ACAD_LAYOUT
350
1A
  3
ACAD_MLINESTYLE
350
17
  3
ACAD_PLOTSETTINGS
350
19
  3
ACAD_PLOTSTYLENAME
350
E
  3
ACAD_SCALELIST
350
47
  3
DWGPROPS
350
13C
  0
DICTIONARY
  5
D
102
{ACAD_REACTORS
330
C
102
}
330
C
100
AcDbDictionary
281
     1
  0
DICTIONARY
  5
1A
102
{ACAD_REACTORS
330
C
102
}
330
C
100
AcDbDictionary
281
     1
  3
Layout1
350
1E
  3
Layout2
350
26
  3
Model
350
22
  0
DICTIONARY
  5
17
102
{ACAD_REACTORS
330
C
102
}
330
C
100
AcDbDictionary
281
     1
  3
Standard
350
18
  0
DICTIONARY
  5
19
102
{ACAD_REACTORS
330
C
102
}
330
C
100
AcDbDictionary
281
     1
  0
ACDBDICTIONARYWDFLT
  5
E
102
{ACAD_REACTORS
330
C
102
}
330
C
100
AcDbDictionary
281
     1
  3
Normal
350
F
100
AcDbDictionaryWithDefault
340
F
  0
DICTIONARY
  5
47
102
{ACAD_REACTORS
330
C
102
}
330
C
100
AcDbDictionary
281
     1
  3
A0
350
48
  3
A1
350
49
  3
A2
350
4A
  3
A3
350
4B
  3
A4
350
4C
  3
A5
350
4D
  3
A6
350
4E
  3
A7
350
4F
  3
A8
350
50
  3
A9
350
51
  3
B0
350
52
  3
B1
350
53
  3
B2
350
54
  3
B3
350
55
  3
B4
350
56
  3
B5
350
57
  3
B6
350
58
  3
B7
350
59
  3
B8
350
5A
  3
B9
350
5B
  3
C0
350
5C
  3
C1
350
5D
  3
C2
350
5E
  3
C3
350
5F
  3
C4
350
60
  3
C5
350
61
  3
C6
350
62
  3
C7
350
63
  3
C8
350
64
  3
C9
350
65
  3
D0
350
66
  3
D1
350
67
  3
D2
350
68
  0
XRECORD
  5
13C
102
{ACAD_REACTORS
330
C
102
}
330
C
100
AcDbXrecord
280
     1
  1
DWGPROPS COOKIE
  2

  3

  4

  6

  7

  8
b.kav
  9

300
=
301
=
302
=
303
=
304
=
305
=
306
=
307
=
308
=
309
=
 40
0.0
 41
2459741.489396343
 42
2459741.489396528
  1

 90
        0
  0
LAYOUT
  5
1E
102
{ACAD_REACTORS
330
1A
102
}
330
1A
100
AcDbPlotSettings
  1

  2
none_device
  4

  6

 40
0.0
 41
0.0
 42
0.0
 43
0.0
 44
0.0
 45
0.0
 46
0.0
 47
0.0
 48
0.0
 49
0.0
140
0.0
141
0.0
142
1.0
143
1.0
 70
   688
 72
     1
 73
     0
 74
     5
  7

 75
    16
147
1.0
148
0.0
149
0.0
100
AcDbLayout
  1
Layout1
 70
     1
 71
     1
 10
0.0
 20
0.0
 11
420.0
 21
297.0
 12
0.0
 22
0.0
 32
0.0
 14
1.0000000000E+20
 24
1.0000000000E+20
 34
1.0000000000E+20
 15
-1.0000000000E+20
 25
-1.0000000000E+20
 35
-1.0000000000E+20
146
0.0
 13
0.0
 23
0.0
 33
0.0
 16
1.0
 26
0.0
 36
0.0
 17
0.0
 27
1.0
 37
0.0
 76
     0
330
1B
  0
LAYOUT
  5
26
102
{ACAD_REACTORS
330
1A
102
}
330
1A
100
AcDbPlotSettings
  1

  2
none_device
  4

  6

 40
0.0
 41
0.0
 42
0.0
 43
0.0
 44
0.0
 45
0.0
 46
0.0
 47
0.0
 48
0.0
 49
0.0
140
0.0
141
0.0
142
1.0
143
1.0
 70
   688
 72
     1
 73
     0
 74
     5
  7

 75
    16
147
1.0
148
0.0
149
0.0
100
AcDbLayout
  1
Layout2
 70
     1
 71
     2
 10
0.0
 20
0.0
 11
0.0
 21
0.0
 12
0.0
 22
0.0
 32
0.0
 14
0.0
 24
0.0
 34
0.0
 15
0.0
 25
0.0
 35
0.0
146
0.0
 13
0.0
 23
0.0
 33
0.0
 16
1.0
 26
0.0
 36
0.0
 17
0.0
 27
1.0
 37
0.0
 76
     0
330
23
  0
LAYOUT
  5
22
102
{ACAD_REACTORS
330
1A
102
}
330
1A
100
AcDbPlotSettings
  1

  2
none_device
  4
Letter_(8.50_x_11.00_Inches)
  6

 40
6.35
 41
6.35
 42
6.35000508
 43
6.35000508
 44
215.9
 45
279.4
 46
0.0
 47
0.0
 48
0.0
 49
0.0
140
0.0
141
0.0
142
1.0
143
1.0
 70
  1712
 72
     1
 73
     0
 74
     0
  7

 75
     0
147
1.0
148
0.0
149
0.0
100
AcDbLayout
  1
Model
 70
     1
 71
     0
 10
0.0
 20
0.0
 11
279.4
 21
215.9
 12
0.0
 22
0.0
 32
0.0
 14
0.0
 24
0.0
 34
0.0
 15
279.4
 25
215.9
 35
0.0
146
0.0
 13
0.0
 23
0.0
 33
0.0
 16
1.0
 26
0.0
 36
0.0
 17
0.0
 27
1.0
 37
0.0
 76
     0
330
1F
331
29
  0
MLINESTYLE
  5
18
102
{ACAD_REACTORS
330
17
102
}
330
17
100
AcDbMlineStyle
  2
Standard
 70
     0
  3

 62
   256
 51
90.0
 52
90.0
 71
     2
 49
0.5
 62
   256
  6
BYLAYER
 49
-0.5
 62
   256
  6
BYLAYER
  0
ACDBPLACEHOLDER
  5
F
102
{ACAD_REACTORS
330
E
102
}
330
E
  0
SCALE
  5
48
102
{ACAD_REACTORS
330
47
102
}
330
47
100
AcDbScale
 70
     0
300
1:1
140
1.0
141
1.0
290
     1
  0
SCALE
  5
49
102
{ACAD_REACTORS
330
47
102
}
330
47
100
AcDbScale
 70
     0
300
1:2
140
1.0
141
2.0
290
     0
  0
SCALE
  5
4A
102
{ACAD_REACTORS
330
47
102
}
330
47
100
AcDbScale
 70
     0
300
1:4
140
1.0
141
4.0
290
     0
  0
SCALE
  5
4B
102
{ACAD_REACTORS
330
47
102
}
330
47
100
AcDbScale
 70
     0
300
1:5
140
1.0
141
5.0
290
     0
  0
SCALE
  5
4C
102
{ACAD_REACTORS
330
47
102
}
330
47
100
AcDbScale
 70
     0
300
1:8
140
1.0
141
8.0
290
     0
  0
SCALE
  5
4D
102
{ACAD_REACTORS
330
47
102
}
330
47
100
AcDbScale
 70
     0
300
1:10
140
1.0
141
10.0
290
     0
  0
SCALE
  5
4E
102
{ACAD_REACTORS
330
47
102
}
330
47
100
AcDbScale
 70
     0
300
1:16
140
1.0
141
16.0
290
     0
  0
SCALE
  5
4F
102
{ACAD_REACTORS
330
47
102
}
330
47
100
AcDbScale
 70
     0
300
1:20
140
1.0
141
20.0
290
     0
  0
SCALE
  5
50
102
{ACAD_REACTORS
330
47
102
}
330
47
100
AcDbScale
 70
     0
300
1:30
140
1.0
141
30.0
290
     0
  0
SCALE
  5
51
102
{ACAD_REACTORS
330
47
102
}
330
47
100
AcDbScale
 70
     0
300
1:40
140
1.0
141
40.0
290
     0
  0
SCALE
  5
52
102
{ACAD_REACTORS
330
47
102
}
330
47
100
AcDbScale
 70
     0
300
1:50
140
1.0
141
50.0
290
     0
  0
SCALE
  5
53
102
{ACAD_REACTORS
330
47
102
}
330
47
100
AcDbScale
 70
     0
300
1:100
140
1.0
141
100.0
290
     0
  0
SCALE
  5
54
102
{ACAD_REACTORS
330
47
102
}
330
47
100
AcDbScale
 70
     0
300
2:1
140
2.0
141
1.0
290
     0
  0
SCALE
  5
55
102
{ACAD_REACTORS
330
47
102
}
330
47
100
AcDbScale
 70
     0
300
4:1
140
4.0
141
1.0
290
     0
  0
SCALE
  5
56
102
{ACAD_REACTORS
330
47
102
}
330
47
100
AcDbScale
 70
     0
300
8:1
140
8.0
141
1.0
290
     0
  0
SCALE
  5
57
102
{ACAD_REACTORS
330
47
102
}
330
47
100
AcDbScale
 70
     0
300
10:1
140
10.0
141
1.0
290
     0
  0
SCALE
  5
58
102
{ACAD_REACTORS
330
47
102
}
330
47
100
AcDbScale
 70
     0
300
100:1
140
100.0
141
1.0
290
     0
  0
SCALE
  5
59
102
{ACAD_REACTORS
330
47
102
}
330
47
100
AcDbScale
 70
     0
300
1/128" = 1'-0"
140
0.0078125
141
12.0
290
     0
  0
SCALE
  5
5A
102
{ACAD_REACTORS
330
47
102
}
330
47
100
AcDbScale
 70
     0
300
1/64" = 1'-0"
140
0.015625
141
12.0
290
     0
  0
SCALE
  5
5B
102
{ACAD_REACTORS
330
47
102
}
330
47
100
AcDbScale
 70
     0
300
1/32" = 1'-0"
140
0.03125
141
12.0
290
     0
  0
SCALE
  5
5C
102
{ACAD_REACTORS
330
47
102
}
330
47
100
AcDbScale
 70
     0
300
1/16" = 1'-0"
140
0.0625
141
12.0
290
     0
  0
SCALE
  5
5D
102
{ACAD_REACTORS
330
47
102
}
330
47
100
AcDbScale
 70
     0
300
3/32" = 1'-0"
140
0.09375
141
12.0
290
     0
  0
SCALE
  5
5E
102
{ACAD_REACTORS
330
47
102
}
330
47
100
AcDbScale
 70
     0
300
1/8" = 1'-0"
140
0.125
141
12.0
290
     0
  0
SCALE
  5
5F
102
{ACAD_REACTORS
330
47
102
}
330
47
100
AcDbScale
 70
     0
300
3/16" = 1'-0"
140
0.1875
141
12.0
290
     0
  0
SCALE
  5
60
102
{ACAD_REACTORS
330
47
102
}
330
47
100
AcDbScale
 70
     0
300
1/4" = 1'-0"
140
0.25
141
12.0
290
     0
  0
SCALE
  5
61
102
{ACAD_REACTORS
330
47
102
}
330
47
100
AcDbScale
 70
     0
300
3/8" = 1'-0"
140
0.375
141
12.0
290
     0
  0
SCALE
  5
62
102
{ACAD_REACTORS
330
47
102
}
330
47
100
AcDbScale
 70
     0
300
1/2" = 1'-0"
140
0.5
141
12.0
290
     0
  0
SCALE
  5
63
102
{ACAD_REACTORS
330
47
102
}
330
47
100
AcDbScale
 70
     0
300
3/4" = 1'-0"
140
0.75
141
12.0
290
     0
  0
SCALE
  5
64
102
{ACAD_REACTORS
330
47
102
}
330
47
100
AcDbScale
 70
     0
300
1" = 1'-0"
140
1.0
141
12.0
290
     0
  0
SCALE
  5
65
102
{ACAD_REACTORS
330
47
102
}
330
47
100
AcDbScale
 70
     0
300
1-1/2" = 1'-0"
140
1.5
141
12.0
290
     0
  0
SCALE
  5
66
102
{ACAD_REACTORS
330
47
102
}
330
47
100
AcDbScale
 70
     0
300
3" = 1'-0"
140
3.0
141
12.0
290
     0
  0
SCALE
  5
67
102
{ACAD_REACTORS
330
47
102
}
330
47
100
AcDbScale
 70
     0
300
6" = 1'-0"
140
6.0
141
12.0
290
     0
  0
SCALE
  5
68
102
{ACAD_REACTORS
330
47
102
}
330
47
100
AcDbScale
 70
     0
300
1'-0" = 1'-0"
140
12.0
141
12.0
290
     0
  0
ENDSEC
  0
EOF
